>
 >
Dance All Night

Dance All Night Guitar Tabs

Inhale Exhale - Dance All Night chords, tabs, tablatures, lyrics

Guitar lessons | Add/correct | Request | Top 50 tabs Artists:  A B C D E F G H I J K L M N O P Q R S T U V W X Y Z 0-9

Dance All Night Guitar Tabs – Inhale Exhale

CD, Sheet music, Poster

Do you like Dance All Night? Share with your friends now
Tabs
-------------------------------------------------------------------------------
                         Dance All Night - Inhale/Exhale
-------------------------------------------------------------------------------

Tuning: Drop C

Part A

Gtr 1
D|---------------------------------------------------------------------------|
A|---------------------------------------------------------------------------|
F|------------------------------------------10-------------------------------|
C|-0--0---+-+-+-----0--0-----------10-12-13----13-12-10-----------0--0-------|
G|-0--0---+-+-+-----0--0--10-12-13----------------------13-12-10--0--0-------|
C|-0--0---+-+-+-----0--0------------------------------------------0--0-------|
         ( ^^^slide up and down harmonic around 3rd - 5th freths )

Gtr 2
D|---------------------------------------------------------------------------|
A|---------------------------------------------------------------------------|
F|------------------------------------------5--------------------------------|
C|--------------------------------5--7--8------8--7--5-----------------------|
G|------------------------5--7--8-----------------------8---7--5-------------|
C|---------------------------------------------------------------------------|



Gtr 1
D|---------------------------------------------------------------------------|
A|---------------------------------------------------------------------------|
F|----------------------------------------------------5----------------------|
C|-0-0-0-0-0-0-0-0-0-0-0-0---0---0-----------5--7--8------8--7--5------------|
G|-0-0-0-0-0-0-0-0-0-0-0-0---0---0---5--7--8-----------------------8---7--5--|
C|-0-0-0-0-0-0-0-0-0-0-0-0---0---0-------------------------------------------|
   x x x x x x x x x x x x

Gtr 2
D|---------------------------------------------------------------------------|
A|---------------------------------------------------------------------------|
F|-----------------------------------------------------10--------------------|
C|--------------------------------------------10-12-13----13-12-10-----------|
G|-----------------------------------10-12-13----------------------13-12-10--|
C|---------------------------------------------------------------------------|


Part B

D|---------------------------------------------------------------------------|
A|---------------------------------------------------------------------------|
F|---------------------------------------------------------------------------|
C|--------------------------------0------------------------------------------|
G|-5-0-0-3h5-0-0-3h5-0-0-0-5h8p5--0--0-0-0--3h5p3-0-0-5h8p5-7-0-0-3----------|
C|---0-0-----0-0-----0-0-0--------0--0-0-0--------0-0---------0-0------------|
     x x     x x     x x x           x x x        x x         x x


Part C

D|---------------------------------------------------------------------------|
A|---------------------------------------------------------------------------|
F|---------------------------------------------------------------------------|
C|--------------------------------0------------------------------------------|
G|-5-000-3h5-000-3h5-000-0-5h8p5--0--000-0--3h5p3-0-0-5h8p5-7-000-3----------|
C|---000-----000-----000-0--------0--000-0--------0-0---------000------------|
     xxx     xxx     xxx x           xxx x        x x         xxx


Part D

D|---------------------------------------------------------------------------|
A|---------------------------------------------------------------------------|
F|---------------------------------------------------------------------------|
C|------------------------------------0--5-6-0-8-0-5-6-0-7-6-0-6-5-----------|
G|-------------------5--------8-------0--5-6-0-8-0-5-6-0-5-6-0-6-5-----------|
C|-0-6-5-0-8-0-5-6-0--6-0-5-0---------0--5-6-0-8-0-5-6-0---6-0-6-5-----------|
   (repeat this riff about 6x)               x

D|---------------------------------------------------------------------------|
A|---------------------------------------------------------------------------|
F|---------------------------------------------------------------------------|
C|---------------------------------------------------------------------------|
G|--------5-3--0--6-5--------------------------------------------------------|
C|-0-0-0--5-3--0--6-5--------------------------------------------------------|
   x x         x

Outro

D|---------------------------------------------------------------------------|
A|---------------------------------------------------------------------------|
F|---------------------------------------------------------------------------|
C|-0-0-0-0-0-0-0-0-0-0-0-0---3---0---0-0-0-0-0-0-0-0-0-0-0-0---3---0---------|
G|-0-0-0-0-0-0-0-0-0-0-0-0---3---0---0-0-0-0-0-0-0-0-0-0-0-0---3---0---------|
C|-0-0-0-0-0-0-0-0-0-0-0-0---3---0---0-0-0-0-0-0-0-0-0-0-0-0---3---0---------|
   x x x x x x x x x x x x           x x x x x x x x x x x x

C|-000000000000---3---0---------------------8-8-8-7-7-7--0-3--0--------------|
G|-000000000000---3---0---5-5-5-6-6-6-5-5-5--------------0-3--0--------------|
C|-000000000000---3---0----------------------------------0-3--0--------------|
   xxxxxxxxxxxx           x x x x x x x x x              x




| /  slide up
| \  slide down
| h  hammer-on
| p  pull-off
| ~  vibrato
| +  harmonic
| x  Mute note
===============================================================================





Comments


Popular Inhale Exhale tabs & chords
A Call To The Faithful Tabs
By Grace Intro Tabs
Fluvanna Tabs
Frail Dreams And Rude Awakenings Tabs
I Need A Space Ship Instead I Got Problems Tabs
Lost The Sick The Sacred Tabs
Lost The Sick The Sacred Intro Tabs
Redemption Tabs
Sons Of Tomorrow (To Noah James) 1 Tabs
Tonight We Die Together Tabs


Song lyrics



↑ Back to top | Tablatures and chords are parodies/interpretations of the original songs. You may use it for private study, scholarship, research or language learning purposes only
© 2014 AZChords.com Contact us | Privacy policy | DMCA | Add/correct tabs | Request tabs | Top 50 tabs