» » »

Inhale Exhale, Better Her Than Me Tabs (ver.1)

Artists:  A B C D E F G H I J K L M N O P Q R S T U V W X Y Z # 

Better Her Than Me Tabs (ver.1)

Inhale Exhale Tabs
Rating:
0/5 (0 votes)
Better Her Than Me lessons Tabs too difficult? Try these video lessons and learn fast
                -------------------------------------------------------------------------------
                             Better Her Than Me- Inhale, Exhale
-------------------------------------------------------------------------------

Tuning:E-A-D-G-B-E                   *repeat intro throughout verses (4 times in each verse)
 Intro/Verses
e|-13------------------------------------------------------------|
B|----11-10------------------------------------------------------|
G|----------12-10------------------------------------------------|
D|----------------13-12-10----------------10-12-13-12--10-12-10--|
A|-------------------------13-12-10-12-13------------------------|
E|---------------------------------------------------------------|

e|-13-----------------------------------------------------------|
B|----11-10-----------------------------------------------------|
G|----------12-10-----------------------------------------------|
D|----------------13-12-10----------------10-12-13-12--8-10-10--|
A|-------------------------13-12-10-12-13-----------------------|
E|--------------------------------------------------------------|

e|-13------------------------------------------------------------|
B|----11-10------------------------------------------------------|
G|----------12-10------------------------------------------------|
D|----------------13-12-10----------------10-12-13-12--10-12-10--|
A|-------------------------13-12-10-12-13------------------------|
E|---------------------------------------------------------------|

e|-13------------------------------------------------------------|
B|----11-10------------------------------------------------------|
G|----------12-10------------------------------------------------|
D|----------------13-12-10-----------------10-12-13-12--8-10-10--|
A|--------------------------13-12-10-12-13-----------------------|
E|---------------------------------------------------------------|
Pre Chorus
e|--------------10-----------------------------10-----------------|
B|-----------11----11-----------------------11----11--------------|
G|-------12-----------12--10-12---------12-----------12--8/10-10--|
D|----12-----------------------------12---------------------------|
A|-10----------------------------10-------------------------------|
E|----------------------------------------------------------------|

e|-------------10---------------------------10-----------------|
B|----------11----11---------------------11----11--------------|
G|-------12---------12--10-12--------12-----------12--8/10-10--|
D|----12--------------------------12---------------------------|
A|-10--------------------------10------------------------------|
E|-------------------------------------------------------------|
Chorus
e|----------------------------------------------|
B|----------------------------------------------|
G|-7-7~~---5~~--10~~--7-7~~---5~~--10~~--7-7~~--|
D|-7-7~~---5~~--10~~--7-7~~---5~~--10~~--7-7~~--|
A|-5-5~~---3~~--8~~---5-5~~---3~~--8~~---5-5~~--|
E|----------------------------------------------|
Bridge * the ~ next to the 10 means to hold and vibrato slightly
e|-------------------------------------------------------------------|
B|-------------------------------------------------------------------|
G|-------------------------10h12-10-----------------------------10~--|
D|-10-12-12-12-12-10-12-12-----------10-10-12-12-12-12-10-12-12------|
A|-------------------------------------------------------------------|
E|-------------------------------------------------------------------|
Outro  Guitar I
e|-----------------------------------------------------------------|
B|-----------------------------------------------------------------|
G|-------------------------10h12-10----------------------------10--|
D|-10-12-12-12-12-10-12-12----------10-10-12-12-12-12-10-12-12-----|
A|-----------------------------------------------------------------|
E|-----------------------------------------------------------------|
            Guitar II
e|---------------------------------------------------------------------------------------|
B|---------------------------------------------------------------------------------------|
G|-7~~---5~~--10~~-----------------------------------------------------------------------|
D|-7~~---5~~--10~~-----------------------------------------------------------------------|
A|-5~~---3~~--8~~------------------------------------------------------------------------|
E|---------------------------------------------------------------------------------------|
            Guitar III   *plays around these notes
e|---------------------------------------------------------------------------------------|
B|--11-10--------------------------------------------------------------------------------|
G|--------12-10--------------------------------------------------------------------------|
D|--------------13-12-10-12-12-----------------------------------------------------------|
A|---------------------------------------------------------------------------------------|
E|---------------------------------------------------------------------------------------|
*******************************************************************************************
e|-----------------------------------------------------------------------------------|
B|-----------------------------------------------------------------------------------|
G|-7-7~~~----------------------------------------------------------------------------|
D|-7-7~~~----------------------------------------------------------------------------|
A|-5-5~~~----------------------------------------------------------------------------|
E|-----------------------------------------------------------------------------------|

Song Structure:
Intro/Verse 1 x1
Pre Chorus x1
Chorus x1
Verse 2 x1
Pre Chorus x1
Chorus x2
Bridge x4
Outro x2
End *play the last two power chords
************************************

| /   slide up
| \   slide down
| h   hammer-on
| p   pull-off
| ~   let ring
| +   harmonic
| x   Mute note
| b   Bend
| pb  Pre-bend
| br  Bend release
| pbr Pre-bend release
| brb Bend release bend

************************************
            
Submit corrections

comments powered by Disqus
↑ Back to top | Inhale Exhale Tabs for Better Her Than Me. Lyrics for acoustic guitar and electric guitar. Tablatures and chords are parodies/interpretations of the original songs. You may use it for private study, scholarship, research or language learning purposes only