» » »

Ingrid Michaelson, Starting Now Tabs (ver.2)

Artists:  A B C D E F G H I J K L M N O P Q R S T U V W X Y Z # 

Starting Now Tabs (ver.2)

Ingrid Michaelson Tabs
 Rating:
4/5 (4 votes)
Starting Now lessons Tabs too difficult? Try these video lessons and learn fast
                STARTING NOW by Ingrid Michaelson
Standard Tuning: EADGBe
No Capo Required

This tab is pretty simple as long as you follow it carefully. Im not sure its 100% 
but its very close. Listen to the song too for strumming/plucking techniques.

INTRO:

e|----------------------------------------------------0-0-0-0-0-|
B|-----3-3-3-3-3-------3-3-3-3-3-------3-3-3-3-3----------------|
G|--------------------------------------------------------------|
D|-------------------------------------------------2------------|
A|--------------------------------0h2---------------------------|
E|--2---------------3-------------------------------------------|

                        ^REPEAT TWICE^

1st VERSE:

e|----------------------------------------------------0-0-0-0-0-|
B|-----3-3-3-3-3-------3-3-3-3-3-------3-3-3-3-3----------------|
G|--------------------------------------------------------------|
D|-------------------------------------------------2------------|
A|--------------------------------0h2---------------------------|
E|--2---------------3-------------------------------------------|

                      ^REPEAT FOUR TIMES^


I want to crawl back inside my mother's womb
I want to shut out all the lights in this room
I want to start fresh, like a baby in a sink
Scrub away all these thoughts that i think of you


INTERLUDE:
e|----------------------------------------------------0-0-0-0-0-|
B|-----3-3-3-3-3-------3-3-3-3-3-------3-3-3-3-3----------------|
G|--------------------------------------------------------------|
D|-------------------------------------------------2------------|
A|--------------------------------0h2---------------------------|
E|--2---------------3-------------------------------------------|
                         ^REPEAT TWICE^

2nd VERSE:

e|----------------------------------------------------0-0-0-0-0-|
B|-----3-3-3-3-3-------3-3-3-3-3-------3-3-3-3-3----------------|
G|--------------------------------------------------------------|
D|-------------------------------------------------2------------|
A|--------------------------------0h2---------------------------|
E|--2---------------3-------------------------------------------|

                      ^REPEAT FOUR TIMES^

So life moves slowly when you're waiting for it to boil
Feel like i watch from 6 feet under the soil
Still want to hold you and kiss behind your ears
But i re count the countless tears that i lost for you

PRE-CHORUS:

D         A              Bm  G
  But before you finally go *(before you go)*

D          A                   G..... hold
  There's one thing you should know: That I promise -


CHORUS:

e|--3-3-3-3-3-3-3----5-5-5-5-5-5-5----3-3-3-3-3-3-3----5-5-5-5-5-5-5--|
B|--3-3-3-3-3-3-3----5-5-5-5-5-5-5----3-3-3-3-3-3-3----5-5-5-5-5-5-5--|
G|--3-3-3-3-3-3-3----5-5-5-5-5-5-5----3-3-3-3-3-3-3----5-5-5-5-5-5-5--|
D|--5-5-5-5-5-5-5----7-7-7-7-7-7-7----5-5-5-5-5-5-5----7-7-7-7-7-7-7--|
A|--5-5-5-5-5-5-5----7-7-7-7-7-7-7----5-5-5-5-5-5-5----7-7-7-7-7-7-7--|
E|--3-3-3-3-3-3-3----5-5-5-5-5-5-5----3-3-3-3-3-3-3----5-5-5-5-5-5-5--|

Starting now I'll never know your name

e|--3-3-3-3-3-3-3----5-5-5-5-5-5-5----3-3-3-3-3-3-3----5-5-5-5-5-5-5--|
B|--3-3-3-3-3-3-3----5-5-5-5-5-5-5----3-3-3-3-3-3-3----5-5-5-5-5-5-5--|
G|--3-3-3-3-3-3-3----5-5-5-5-5-5-5----3-3-3-3-3-3-3----5-5-5-5-5-5-5--|
D|--5-5-5-5-5-5-5----7-7-7-7-7-7-7----5-5-5-5-5-5-5----7-7-7-7-7-7-7--|
A|--5-5-5-5-5-5-5----7-7-7-7-7-7-7----5-5-5-5-5-5-5----7-7-7-7-7-7-7--|
E|--3-3-3-3-3-3-3----5-5-5-5-5-5-5----3-3-3-3-3-3-3----5-5-5-5-5-5-5--|

Starting now I'll never feel the same

e|--3-3-3-3-3-3-3----5-5-5-5-5-5-5----3-3-3-3-3-3-3----5-x-|
B|--3-3-3-3-3-3-3----5-5-5-5-5-5-5----3-3-3-3-3-3-3----5-x-|
G|--3-3-3-3-3-3-3----5-5-5-5-5-5-5----3-3-3-3-3-3-3----5-x-|
D|--5-5-5-5-5-5-5----7-7-7-7-7-7-7----5-5-5-5-5-5-5----7-x-|
A|--5-5-5-5-5-5-5----7-7-7-7-7-7-7----5-5-5-5-5-5-5----7-x-|
E|--3-3-3-3-3-3-3----5-5-5-5-5-5-5----3-3-3-3-3-3-3----5-x-|

Starting now I wish you never came into my world.

INTERLUDE:

e|--3-3-3-3-3-3-3----5-5-5-5-5-5-5----3-3-3-3-3-3-3----5-5-5-5-5-5-5--|
B|--3-3-3-3-3-3-3----5-5-5-5-5-5-5----3-3-3-3-3-3-3----5-5-5-5-5-5-5--|
G|--3-3-3-3-3-3-3----5-5-5-5-5-5-5----3-3-3-3-3-3-3----5-5-5-5-5-5-5--|
D|--5-5-5-5-5-5-5----7-7-7-7-7-7-7----5-5-5-5-5-5-5----7-7-7-7-7-7-7--|
A|--5-5-5-5-5-5-5----7-7-7-7-7-7-7----5-5-5-5-5-5-5----7-7-7-7-7-7-7--|
E|--3-3-3-3-3-3-3----5-5-5-5-5-5-5----3-3-3-3-3-3-3----5-5-5-5-5-5-5--|

                      ^REPEAT TWICE^

BRIDGE:
D              A            Bm     G
It's my world, it's not ours anymore

D              A            Bm     G...hold
It's my world, it's not ours anymore

CHORUS:

e|--3-3-3-3-3-3-3----5-5-5-5-5-5-5----3-3-3-3-3-3-3----5-5-5-5-5-5-5--|
B|--3-3-3-3-3-3-3----5-5-5-5-5-5-5----3-3-3-3-3-3-3----5-5-5-5-5-5-5--|
G|--3-3-3-3-3-3-3----5-5-5-5-5-5-5----3-3-3-3-3-3-3----5-5-5-5-5-5-5--|
D|--5-5-5-5-5-5-5----7-7-7-7-7-7-7----5-5-5-5-5-5-5----7-7-7-7-7-7-7--|
A|--5-5-5-5-5-5-5----7-7-7-7-7-7-7----5-5-5-5-5-5-5----7-7-7-7-7-7-7--|
E|--3-3-3-3-3-3-3----5-5-5-5-5-5-5----3-3-3-3-3-3-3----5-5-5-5-5-5-5--|

Starting now I'll never know your name

e|--3-3-3-3-3-3-3----5-5-5-5-5-5-5----3-3-3-3-3-3-3----5-5-5-5-5-5-5--|
B|--3-3-3-3-3-3-3----5-5-5-5-5-5-5----3-3-3-3-3-3-3----5-5-5-5-5-5-5--|
G|--3-3-3-3-3-3-3----5-5-5-5-5-5-5----3-3-3-3-3-3-3----5-5-5-5-5-5-5--|
D|--5-5-5-5-5-5-5----7-7-7-7-7-7-7----5-5-5-5-5-5-5----7-7-7-7-7-7-7--|
A|--5-5-5-5-5-5-5----7-7-7-7-7-7-7----5-5-5-5-5-5-5----7-7-7-7-7-7-7--|
E|--3-3-3-3-3-3-3----5-5-5-5-5-5-5----3-3-3-3-3-3-3----5-5-5-5-5-5-5--|

Starting now I'll never feel the same

e|--3-3-3-3-3-3-3----5-5-5-5-5-5-5----3-3-3-3-3-3-3----5-5-5-5-5-5-5--|
B|--3-3-3-3-3-3-3----5-5-5-5-5-5-5----3-3-3-3-3-3-3----5-5-5-5-5-5-5--|
G|--3-3-3-3-3-3-3----5-5-5-5-5-5-5----3-3-3-3-3-3-3----5-5-5-5-5-5-5--|
D|--5-5-5-5-5-5-5----7-7-7-7-7-7-7----5-5-5-5-5-5-5----7-7-7-7-7-7-7--|
A|--5-5-5-5-5-5-5----7-7-7-7-7-7-7----5-5-5-5-5-5-5----7-7-7-7-7-7-7--|
E|--3-3-3-3-3-3-3----5-5-5-5-5-5-5----3-3-3-3-3-3-3----5-5-5-5-5-5-5--|

                         ^REPEAT FIVE TIMES^

Starting now... starting now...
(It's my world.. it's my world...)

e|--3-3-3-3-3-3-3----5-5-5-5-5-5-5----3-3-3-3-3-3-3----5-x-|
B|--3-3-3-3-3-3-3----5-5-5-5-5-5-5----3-3-3-3-3-3-3----5-x-|
G|--3-3-3-3-3-3-3----5-5-5-5-5-5-5----3-3-3-3-3-3-3----5-x-|
D|--5-5-5-5-5-5-5----7-7-7-7-7-7-7----5-5-5-5-5-5-5----7-x-|
A|--5-5-5-5-5-5-5----7-7-7-7-7-7-7----5-5-5-5-5-5-5----7-x-|
E|--3-3-3-3-3-3-3----5-5-5-5-5-5-5----3-3-3-3-3-3-3----5-x-|

Starting now,
I wish you never came (*) into my world.

(*) CODA:

e|----------------------------------------------------0-0-0-0-0-|
B|-----3-3-3-3-3-------3-3-3-3-3-------3-3-3-3-3----------------|
G|--------------------------------------------------------------|
D|-------------------------------------------------2------------|
A|--------------------------------0h2---------------------------|
E|--2---------------3-------------------------------------------|

                        ^REPEAT FOUR TIMES^

Starting now...starting now....to my world...starting now... ETC.

END ON A D chord.
            
Submit corrections

comments powered by Disqus
↑ Back to top | Ingrid Michaelson Tabs for Starting Now. Lyrics for acoustic guitar and electric guitar. Tablatures and chords are parodies/interpretations of the original songs. You may use it for private study, scholarship, research or language learning purposes only