» » »

Ingrid Michaelson, So Long Tabs (ver.1)

Artists:  A B C D E F G H I J K L M N O P Q R S T U V W X Y Z # 

So Long Tabs (ver.1)

Ingrid Michaelson Tabs
 Rating:
4/5 (4 votes)
So Long lessons Tabs too difficult? Try these video lessons and learn fast
                
So Long by Ingrid Michaelson

No one has tabbed this song yet so I thought I'd give it a go. Capo 6.


intro:
e|---------------------------------------------------------------------------|
B|---------------------------------------------------------------------------|
G|---0---0---0---0---------------------------0-------------------------------|
D|-------------------0---3---2---2---3---3-------3---2---0---2---2-----------|
A|-3---3---3---3---3---3---3---3---3---3---3---3---3---3---3---3---3---------|
E|---------------------------------------------------------------------------|

e|---------------------------------------------------------------------------|
B|---------------------------------------------------------------------------|
G|---------------------------------------------------------------------------|
D|---2---2---2---2---0---0---0---0---0---2---0---0---------------------------|
A|-0---0---0---0-------------------------------------3---3---3---3-----------|
E|-----------------3---3---3---3---2---2---2---2---1---1---1---1-------------|


Verse
e|---------------------------------------------------------------------------|
B|---------------------------------------------------------------------------|
G|---0---0---0---0---------------------------0-------------------------------|
D|-------------------0---3---2---2---3---3-------3---2---0---2---2-----------|
A|-3---3---3---3---3---3---3---3---3---3---3---3---3---3---3---3---3---------|
E|---------------------------------------------------------------------------|
    You've made me,            into someone.

e|---------------------------------------------------------------------------|
B|---------------------------------------------------------------------------|
G|---------------------------------------------------------------------------|
D|---2---2---2---2---0---0---0---0---0---2---0---0---------------------------|
A|-0---0---0---0-------------------------------------3---3---3---3-----------|
E|-----------------3---3---3---3---2---2---2---2---1---1---1---1-------------|
    Who should not hold,       a loaded gun

e|---------------------------------------------------------------------------|
B|---------------------------------------------------------------------------|
G|---0---0---0---0---------------------------0-------------------------------|
D|-------------------0---3---2---2---3---3-------3---2---0---2---2-----------|
A|-3---3---3---3---3---3---3---3---3---3---3---3---3---3---3---3---3---------|
E|---------------------------------------------------------------------------|
    And now you sit,            upon my chest

e|---------------------------------------------------------------------------|
B|---------------------------------------------------------------------------|
G|---------------------------------------------------------------------------|
D|---2---2---2---2---0---0---0---0---0---2---0---0---------------------------|
A|-0---0---0---0-------------------------------------3---3---3---3-----------|
E|-----------------3---3---3---3---2---2---2---2---1---1---1---1-------------|
     Knock out my wind,         knock out my best.

Chorus
e|---------------------------------------------------------------------------|
B|---------------------------------------------------------------------------|
G|---------------------------------------------------------------------------|
D|---2---2---2---2---0---0---0---0----2---2---2---2---2---2---2---2----------|
A|----------------------------------2---2---2---2---3---3---3---3------------|
E|-1---1---1---1---3---3---3---3---------------------------------------------|
     And so long to                 No disasters

e|---------------------------------------------------------------------------|
B|---------------------------------------------------------------------------|
G|------------------------------------0---0---0---0--------------------------|
D|---2---2---2---2---0---0---0---0--------------------0---3---2---2----------|
A|----------------------------------3---3---3---3---3---3---3---3------------|
E|-1---1---1---1---3---3---3---3---------------------------------------------|
              And mornigns too.

e|---------------------------------------------------------------------------|
B|---------------------------------------------------------------------------|
G|---------------------------------------------------------------------------|
D|---2---2---2---2---0---0---0---0----1---1---1---1---2---2---2---2----------|
A|----------------------------------2---2---2---2---3---3---3---3------------|
E|-1---1---1---1---3---3---3---3---------------------------------------------|
    So long to                Ever afters.

e|---------------------------------------------------------------------------|
B|---------------------------------------------------------------------------|
G|---------------------------------------------------------------------------|
D|---2---2---2---2---2---2---2---2---0---0---0---0---0---0---0---0-----------|
A|---------------------------------------------------------------------------|
E|-1---1---1---1---1---1---1---1---3---3---3---3---3---3---3---3-------------|
                              So long to you.

e|---------------------------------------------------------------------------|
B|---------------------------------------------------------------------------|
G|---0---0---0---0---------------------------0-------------------------------|
D|-------------------0---3---2---2---3---3-------3---2---0---2---2-----------|
A|-3---3---3---3---3---3---3---3---3---3---3---3---3---3---3---3---3---------|
E|---------------------------------------------------------------------------|

e|---------------------------------------------------------------------------|
B|---------------------------------------------------------------------------|
G|---------------------------------------------------------------------------|
D|---2---2---2---2---0---0---0---0---0---2---0---0---------------------------|
A|-0---0---0---0-------------------------------------3---3---3---3-----------|
E|-----------------3---3---3---3---2---2---2---2---1---1---1---1-------------|


Verse
e|---------------------------------------------------------------------------|
B|---------------------------------------------------------------------------|
G|---0---0---0---0---------------------------0-------------------------------|
D|-------------------0---3---2---2---3---3-------3---2---0---2---2-----------|
A|-3---3---3---3---3---3---3---3---3---3---3---3---3---3---3---3---3---------|
E|---------------------------------------------------------------------------|
    I am soft                     For only you.

e|---------------------------------------------------------------------------|
B|---------------------------------------------------------------------------|
G|---------------------------------------------------------------------------|
D|---2---2---2---2---0---0---0---0---0---2---0---0---------------------------|
A|-0---0---0---0-------------------------------------3---3---3---3-----------|
E|-----------------3---3---3---3---2---2---2---2---1---1---1---1-------------|
   Impail me with             your tongue it's true

e|---------------------------------------------------------------------------|
B|---------------------------------------------------------------------------|
G|---0---0---0---0---------------------------0-------------------------------|
D|-------------------0---3---2---2---3---3-------3---2---0---2---2-----------|
A|-3---3---3---3---3---3---3---3---3---3---3---3---3---3---3---3---3---------|
E|---------------------------------------------------------------------------|
    And slices of            me pile sky high.

e|---------------------------------------------------------------------------|
B|---------------------------------------------------------------------------|
G|---------------------------------------------------------------------------|
D|---2---2---2---2---0---0---0---0---0---2---0---0---------------------------|
A|-0---0---0---0-------------------------------------3---3---3---3-----------|
E|-----------------3---3---3---3---2---2---2---2---1---1---1---1-------------|
     The same old me        to the naked eye.




Chorus
e|---------------------------------------------------------------------------|
B|---------------------------------------------------------------------------|
G|---------------------------------------------------------------------------|
D|---2---2---2---2---0---0---0---0----2---2---2---2---2---2---2---2----------|
A|----------------------------------2---2---2---2---3---3---3---3------------|
E|-1---1---1---1---3---3---3---3---------------------------------------------|
     And so long to                 No disasters

e|---------------------------------------------------------------------------|
B|---------------------------------------------------------------------------|
G|------------------------------------0---0---0---0--------------------------|
D|---2---2---2---2---0---0---0---0--------------------0---3---2---2----------|
A|----------------------------------3---3---3---3---3---3---3---3------------|
E|-1---1---1---1---3---3---3---3---------------------------------------------|
              And mornigns too.

e|---------------------------------------------------------------------------|
B|---------------------------------------------------------------------------|
G|---------------------------------------------------------------------------|
D|---2---2---2---2---0---0---0---0----1---1---1---1---2---2---2---2----------|
A|----------------------------------2---2---2---2---3---3---3---3------------|
E|-1---1---1---1---3---3---3---3---------------------------------------------|
    So long to                Ever afters.

e|---------------------------------------------------------------------------|
B|---------------------------------------------------------------------------|
G|---------------------------------------------------------------------------|
D|---2---2---2---2---2---2---2---2---0---0---0---0---0---0---0---0-----------|
A|---------------------------------------------------------------------------|
E|-1---1---1---1---1---1---1---1---3---3---3---3---3---3---3---3-------------|
                              So long to you.

Bridge:
e|---------------------------------------------------------------------------|
B|---------------------------------------------------------------------------|
G|---------------------------------------------------------------------------|
D|---2---2---2---2---2---2---2---2---2---2---2---2---2---2---2---2-----------|
A|-3---3---3---3---3---3---3---3---2---2---2---2---2---2---2---2-------------|
E|---------------------------------------------------------------------------|

e|---------------------------------------------------------------------------|
B|---------------------------------------------------------------------------|
G|---------------------------------------------------------------------------|
D|---2---2---2---2---2---2---2---2---2---2---2---2---2---2---2---2-----------|
A|-3---3---3---3---3---3---3---3---------------------------------------------|
E|---------------------------------3---3---3---3---3---3---3---3-------------|

Chorus


Outro:
e|---------------------------------------------------------------------------|
B|---------------------------------------------------------------------------|
G|---0---0---0---0---------------------------0-------------------------------|
D|-------------------0---3---2---2---3---3-------3---2---0---2---2-----------|
A|-3---3---3---3---3---3---3---3---3---3---3---3---3---3---3---3---3---------|
E|---------------------------------------------------------------------------|

e|---------------------------------------------------------------------------|
B|---------------------------------------------------------------------------|
G|---------------------------------------------------------------------------|
D|---2---2---2---2---0---0---0---0---0---0---0---0---0---0---0---0---0---0---|
A|-0---0---0---0-------------------------------------------------------------|
E|-----------------3---3---3---3---2---2---2---2---3---3---3---3---4---4---4-|
            
Submit corrections

comments powered by Disqus
↑ Back to top | Ingrid Michaelson Tabs for So Long. Lyrics for acoustic guitar and electric guitar. Tablatures and chords are parodies/interpretations of the original songs. You may use it for private study, scholarship, research or language learning purposes only