» » »

Everybody Tabs (ver.1)

Artists:  A B C D E F G H I J K L M N O P Q R S T U V W X Y Z # 

Everybody Tabs (ver.1)

Ingrid Michaelson
Rating:
5/5 (4 votes)

Hard to play? Try these video lessons and learn fast.
                
Everybody by Ingrid Michaelson.

I do not understand. Clearly, this song is not played in chords, so why do people 
post this song in
chords? Beats me. Here's the tab. It is played on an Ingrid Michaelson ukelele, so 
put a capo on the
4th fret of a standard tuned guitar and you're set. **Part I is acoustic guitar, Part II is 
electric guitar. Both are capo 4.

Capo 4
Introduction: Part I:
e|---3---3---3---3-----3---3---3---3----3---3---3---3-----3---3---3---3---|
B|---1---1---3---3-----0---0---0---0----1---1---3---3-----0---0---0---0---|
G|---0---0---2---2-----0---0---0---0----0---0---2---2-----0---0---0---0---|
D|-2---2---0---0---0h2---2---2---2----2---2---0---0---0h2---2---2---2-----|
A|------------------------------------------------------------------------|
E|------------------------------------------------------------------------|
Part II:                    xx0787 xx7775


Verse
e|---3---3---3---3-----3---3---3---3----3---3---3---3---3---3---3---3-----|
B|---1---1---3---3-----0---0---0---0----1---1---3---3---0---0---0---0-----|
G|---0---0---2---2-----0---0---0---0----0---0---2---2---0---0---0---0-----|
D|-2---2---0---0---0h2---2---2---2----2---2---0---0---0---0---0---0-------|
A|------------------------------------------------------------------------|
E|------------------------------------------------------------------------|
 We have fallen down again tonight    In this world it's hard to get it right.

e|---3---3---3---3-----3---3---3---3----3---3---3---3---3---3---2---2-----|
B|---1---1---3---3-----0---0---0---0----1---1---3---3---0---0---3---3-----|
G|---0---0---2---2-----0---0---0---0----0---0---2---2---0---0---2---2-----|
D|-2---2---0---0---0h2---2---2---2----2---2---0---0---0---0---0---0-------|
A|------------------------------------------------------------------------|
E|------------------------------------------------------------------------|
Try to make your heart fit like a glove. What it needs is love, love, love.


Chorus
Part I
e|---3---3---3---3---2---2---2---2---3---3---3---3---3---3---3---3--------|
B|---0---0---0---0---3---3---3---3---0---0---0---0---2---2---2---2--------|
G|---0---0---0---0---2---2---2---2---0---0---0---0---0---0---0---0--------|
D|-0---0---0---0---0---0---0---0---2---2---2---2---2---2---2---2----------|
A|------------------------------------------------------------------------|
E|------------------------------------------------------------------------|
 Everybody, everybody wants to love. Everybody, everybody wants to be loved.
 Oh ooh whoa oh, oh ooh whoa oh.

e|---3---3---3---3---2---2---2---2---3---3---3---3---3--------------------|
B|---0---0---0---0---3---3---3---3---0---0---0---0---2--------------------|
G|---0---0---0---0---2---2---2---2---0---0---0---0---0--------------------|
D|-0---0---0---0---0---0---0---0---2---2---2---2-----2--------------------|
A|------------------------------------------------------------------------|
E|------------------------------------------------------------------------|
 Everybody, everybody wants to love. Everybody, everybody wants to be loved.
 Oh ooh whoa oh, oh ooh whoa oh.

Part II
e|--3----------5-3----2-------2--------3-------3--------3-----7-7-7-7-5---|
B|----3----0h3----------3-------3--------0-------0--------1---------------|
G|-0-----0----------------2h4--------0----------------0-------------------| x2
D|------------------0--------------2--------0h2-----2---------------------|
A|------------------------------------------------------------------------|
E|------------------------------------------------------------------------|


Verse
e|---3---3---3---3-----3---3---3---3----3---3---3---3---3---3---3---3-----|
B|---1---1---3---3-----0---0---0---0----1---1---3---3---0---0---0---0-----|
G|---0---0---2---2-----0---0---0---0----0---0---2---2---0---0---0---0-----|
D|-2---2---0---0---0h2---2---2---2----2---2---0---0---0---0---0---0-------|
A|------------------------------------------------------------------------|
E|------------------------------------------------------------------------|
 Happy is the heart that still feels pain  Darkness drains and light will come again

e|---3---3---3---3-----3---3---3---3----3---3---3---3---3---3---2---2-----|
B|---1---1---3---3-----0---0---0---0----1---1---3---3---0---0---3---3-----|
G|---0---0---2---2-----0---0---0---0----0---0---2---2---0---0---2---2-----|
D|-2---2---0---0---0h2---2---2---2----2---2---0---0---0---0---0---0-------|
A|------------------------------------------------------------------------|
E|------------------------------------------------------------------------|
Swing open up your chest and let it in. Just let the love, love, love begin


Chorus
Part I
e|---3---3---3---3---2---2---2---2---3---3---3---3---3---3---3---3--------|
B|---0---0---0---0---3---3---3---3---0---0---0---0---2---2---2---2--------|
G|---0---0---0---0---2---2---2---2---0---0---0---0---0---0---0---0--------|
D|-0---0---0---0---0---0---0---0---2---2---2---2---2---2---2---2----------|
A|------------------------------------------------------------------------|
E|------------------------------------------------------------------------|
 Everybody, everybody wants to love. Everybody, everybody wants to be loved.
 Oh ooh whoa oh, oh ooh whoa oh.

e|---3---3---3---3---2---2---2---2---3---3---3---3---3--------------------|
B|---0---0---0---0---3---3---3---3---0---0---0---0---2--------------------|
G|---0---0---0---0---2---2---2---2---0---0---0---0---0--------------------|
D|-0---0---0---0---0---0---0---0---2---2---2---2-----2--------------------|
A|------------------------------------------------------------------------|
E|------------------------------------------------------------------------|
 Everybody, everybody wants to love. Everybody, everybody wants to be loved.
 Oh ooh whoa oh, oh ooh whoa oh.

Part II
e|--3----------5-3----2-------2--------3-------3--------3-----7-7-7-7-5---|
B|----3----0h3----------3-------3--------0-------0--------1---------------|
G|-0-----0----------------2h4--------0----------------0-------------------| x2
D|------------------0--------------2--------0h2-----2---------------------|
A|------------------------------------------------------------------------|
E|------------------------------------------------------------------------|


Bridge
e|---3---3---3---3---2---2---2---2---3---3---3---3---3---3---3---3--------|
B|---0---0---0---0---3---3---3---3---0---0---0---0---2---2---2---2--------|
G|---0---0---0---0---2---2---2---2---0---0---0---0---0---0---0---0--------|
D|-0---0---0---0---0---0---0---0---2---2---2---2---2---2---2---2----------|
A|------------------------------------------------------------------------|
E|------------------------------------------------------------------------|
Everybody knows the love, everybody holds the love, everybody folds for love

e|---3---3---3---3---2---2---2---2---3---3---3---3---3---3---3---3--------|
B|---0---0---0---0---3---3---3---3---0---0---0---0---2---2---2---2--------|
G|---0---0---0---0---2---2---2---2---0---0---0---0---0---0---0---0--------|
D|-0---0---0---0---0---0---0---0---2---2---2---2---2---2---2---2----------|
A|------------------------------------------------------------------------|
E|------------------------------------------------------------------------|
Everybody feels the love, everybody steals the love, everybody heals with

e|---3---3---2---2---3---3---3---3----3---3---2---2---3---3---2---2-------|
B|---0---0---3---3---0---0---0---0----1---1---3---3---0---0---3---3-------|
G|---0---0---2---2---0---0---0---0----0---0---2---2---0---0---2---2-------|
D|-0---0---0---0---2---2---2---2----2---2---0---0---0---0---0---0---------|
A|------------------------------------------------------------------------|
E|------------------------------------------------------------------------|
    Looove.                   Just let the love, love, love begin. 
 Everybody everybody wants to love, everybody everybody wants to be loved.
Oh oo whoa oh. Oh oo whoa oh.
 Everybody everybody wants to love, everybody everybody wants to be loved.
Oh oo whoa oh. Just let the love, love, love, begin.


Chorus
Part I
e|---3---3---3---3---2---2---2---2---3---3---3---3---3---3---3---3--------|
B|---0---0---0---0---3---3---3---3---0---0---0---0---2---2---2---2--------|
G|---0---0---0---0---2---2---2---2---0---0---0---0---0---0---0---0--------|
D|-0---0---0---0---0---0---0---0---2---2---2---2---2---2---2---2----------|
A|------------------------------------------------------------------------|
E|------------------------------------------------------------------------|
 Everybody, everybody wants to love. Everybody, everybody wants to be loved.
 Oh ooh whoa oh, oh ooh whoa oh. 

e|---3---3---3---3---2---2---2---2---3---3---3---3---3--------------------|
B|---0---0---0---0---3---3---3---3---0---0---0---0---2--------------------|
G|---0---0---0---0---2---2---2---2---0---0---0---0---0--------------------| x2
D|-0---0---0---0---0---0---0---0---2---2---2---2-----2--------------------|
A|------------------------------------------------------------------------|
E|------------------------------------------------------------------------|
 Everybody, everybody wants to love. Everybody, everybody wants to be loved.
 Oh ooh whoa oh, oh ooh whoa oh.

Part II
e|--3----------5-3----2-------2--------3-------3--------3-----7-7-7-7-5---|
B|----3----0h3----------3-------3--------0-------0--------1---------------|
G|-0-----0----------------2h4--------0----------------0-------------------| x4
D|------------------0--------------2--------0h2-----2---------------------|
A|------------------------------------------------------------------------|
E|------------------------------------------------------------------------|


Outro:
e|---3---3---3---3-----3---3---3---3----3---3---3---3-----3---3---3---3---|
B|---1---1---3---3-----0---0---0---0----1---1---3---3-----0---0---0---0---|
G|---0---0---2---2-----0---0---0---0----0---0---2---2-----0---0---0---0---|
D|-2---2---0---0---0h2---2---2---2----2---2---0---0---0h2---2---2---2-----|
A|------------------------------------------------------------------------|
E|------------------------------------------------------------------------|
Part II:                    xx0787 xx7775 xx0003
            
Hard to play? Try these video lessons and learn fast. | Correct




comments powered by Disqus
↑ Back to top | Tablatures and chords are parodies/interpretations of the original songs. You may use it for private study, scholarship, research or language learning purposes only