» » »

Are We There Yet Tabs (ver.1)

Artists:  A B C D E F G H I J K L M N O P Q R S T U V W X Y Z # 

Are We There Yet Tabs (ver.1)

Ingrid Michaelson
Rating:
5/5 (12 votes)

Hard to play? Try these video lessons and learn fast.
                
Are We There Yet? by Ingrid Michaelson.

No one tabbed this song. I love this song so much. So I thought I'd tab it.
There is NO CAPO [:

Intro:
e|--------------------------------------------------------------------|
B|---1---1---1---1---1---1---1---1---1---1---1---1---1---1---1---1----|
G|---0---0---0---0---0---0---0---0---0---0---0---0---0---0---0---0----|
D|--------------------------------------------------------------------|
A|-3---3---3---3---3---3---3---3---3---3---3---3---3---3---3---3------|
E|--------------------------------------------------------------------|

Verse
e|--------------------------------------------------------------------|
B|---1---1---1---1---1---1---1---1---1---1---1---1---1---1---1--1-----|
G|---0---0---0---0---0---0---0---0---0---0---0---0---0---0---0--0-----|
D|-----------------3---3---3---3--------------------------------------|
A|-3---3---3---3-------------------0---0---0---0---2---2---2---2------|
E|--------------------------------------------------------------------|
  They say that home is where the heart is.

e|--------------------------------------------------------------------|
B|---1---1---1---1---1---1---1---1---1---1---1---1---1---1---1--1-----|
G|---0---0---0---0---0---0---0---0---0---0---0---0---0---0---0--0-----|
D|-----------------3---3---3---3--------------------------------------|
A|-3---3---3---3-------------------0---0---0---0---2---2---2---2------|
E|--------------------------------------------------------------------|
  I guess I haven't found my home.

e|--------------------------------------------------------------------|
B|---1---1---1---1---1---1---1---1---1---1---1---1---1---1---1---1----|
G|---0---0---0---0---0---0---0---0---0---0---0---0---0---0---0---0----|
D|-----------------3---3---3---3--------------------------------------|
A|-3---3---3---3-------------------0---0---0---0---2---2---2---2------|
E|--------------------------------------------------------------------|
  And we keep driving 'round in circles.

e|--------------------------------------------------------------------|
B|---1---1---1---1---1---1---1---1---1---1---1---1---1---1---1---1----|
G|---0---0---0---0---0---0---0---0---0---0---0---0---0---0---0---0----|
D|-----------------3---3---3---3--------------------------------------|
A|-3---3---3---3-------------------0---0---0---0---2---2---2---2------|
E|--------------------------------------------------------------------| 
  Afraid to call this place our own.

Chorus 1
e|--------------------------------------------------------------------|
B|---1---1---1---1---1---1---1---1---1---1---1---1---1---1---1---1----|
G|---0---0---0---0---0---0---0---0---0---0---0---0---0---0---0---0----|
D|-2---2---3---3------------------------------------------------------|
A|-----------------0---0---2---2---3---3---3---3---3---3---3---3------|
E|--------------------------------------------------------------------|
  And are we there yet?

Verse
e|--------------------------------------------------------------------|
B|---1---1---1---1---1---1---1---1---1---1---1---1---1---1---1--1-----|
G|---0---0---0---0---0---0---0---0---0---0---0---0---0---0---0--0-----|
D|-----------------3---3---3---3--------------------------------------|
A|-3---3---3---3-------------------0---0---0---0---2---2---2---2------|
E|--------------------------------------------------------------------|
  They say there's linings made of silver.

e|--------------------------------------------------------------------|
B|---1---1---1---1---1---1---1---1---1---1---1---1---1---1---1--1-----|
G|---0---0---0---0---0---0---0---0---0---0---0---0---0---0---0--0-----|
D|-----------------3---3---3---3--------------------------------------|
A|-3---3---3---3-------------------0---0---0---0---2---2---2---2------|
E|--------------------------------------------------------------------|
  Folded inside each raining cloud.

e|--------------------------------------------------------------------|
B|---1---1---1---1---1---1---1---1---1---1---1---1---1---1---1---1----|
G|---0---0---0---0---0---0---0---0---0---0---0---0---0---0---0---0----|
D|-----------------3---3---3---3--------------------------------------|
A|-3---3---3---3-------------------0---0---0---0---2---2---2---2------|
E|--------------------------------------------------------------------|
  Well we need someone to deliver.

e|--------------------------------------------------------------------|
B|---1---1---1---1---1---1---1---1---1---1---1---1---1---1---1---1----|
G|---0---0---0---0---0---0---0---0---0---0---0---0---0---0---0---0----|
D|-----------------3---3---3---3--------------------------------------|
A|-3---3---3---3-------------------0---0---0---0---2---2---2---2------|
E|--------------------------------------------------------------------| 
   Our   silver lining now.

Chorus 2
e|--------------------------------------------------------------------|
B|---1---1---1---1---1---1---1---1---1---1---1---1---1---1---1---1----|
G|---0---0---0---0---0---0---0---0---0---0---0---0---0---0---0---0----|
D|-2---2---3---3-------------------2---2---3---3----------------------|
A|-----------------0---0---2---2-------------------0---0---2---2------|
E|--------------------------------------------------------------------|
   And are we there yet?           And are we there yet?

e|--------------------------------------------------------------------|
B|---1---1---1---1---1---1---1---1---1---1---1---1---1---1---1---1----|
G|---0---0---0---0---0---0---0---0---0---0---0---0---0---0---0---0----|
D|-2---2---3---3-------------------2---2---3---3---0---0---0---0------|
A|-----------------0---0---2---2--------------------------------------|
E|--------------------------------------------------------------------|
    And are we there yet?                   Home Home home.

e|--------------------------------------------------------------------|
B|---1---1---1---1---1---1---1---1---1---1---1---1---1---1---1---1----|
G|---0---0---0---0---0---0---0---0---0---0---0---0---0---0---0---0----|
D|-2---2---3---3---0---0---0---0--------------------------------------|
A|---------------------------------3---3---3---3---3---3---3---3------|
E|--------------------------------------------------------------------|
       Home home home.

Verse
e|--------------------------------------------------------------------|
B|---1---1---1---1---1---1---1---1---1---1---1---1---1---1---1--1-----|
G|---0---0---0---0---0---0---0---0---0---0---0---0---0---0---0--0-----|
D|-----------------3---3---3---3--------------------------------------|
A|-3---3---3---3-------------------0---0---0---0---2---2---2---2------|
E|--------------------------------------------------------------------|
  They say you're really not somebody.

e|--------------------------------------------------------------------|
B|---1---1---1---1---1---1---1---1---1---1---1---1---1---1---1--1-----|
G|---0---0---0---0---0---0---0---0---0---0---0---0---0---0---0--0-----|
D|-----------------3---3---3---3--------------------------------------|
A|-3---3---3---3-------------------0---0---0---0---2---2---2---2------|
E|--------------------------------------------------------------------|
  Until somebody else loves you.

e|--------------------------------------------------------------------|
B|---1---1---1---1---1---1---1---1---1---1---1---1---1---1---1---1----|
G|---0---0---0---0---0---0---0---0---0---0---0---0---0---0---0---0----|
D|-----------------3---3---3---3--------------------------------------|
A|-3---3---3---3-------------------0---0---0---0---2---2---2---2------|
E|--------------------------------------------------------------------|
  Well I am waiting to make somebody somebody

e|--------------------------------------------------------------------|
B|---1---1---1---1---1---1---1---1---1---1---1---1---1---1---1---1----|
G|---0---0---0---0---0---0---0---0---0---0---0---0---0---0---0---0----|
D|-----------------3---3---3---3--------------------------------------|
A|-3---3---3---3-------------------0---0---0---0---2---2---2---2------|
E|--------------------------------------------------------------------|
    Soon,

e|--------------------------------------------------------------------|
B|---1---1---1---1---1---1---1---1---1---1---1---1---1---1---1---1----|
G|---0---0---0---0---0---0---0---0---0---0---0---0---0---0---0---0----|
D|-----------------3---3---3---3--------------------------------------|
A|-3---3---3---3-------------------0---0---0---0---2---2---2---2------|
E|--------------------------------------------------------------------|
   MMmmmmmm.


Bridge
e|-------3---------------3---------------3---------------3------------|
B|---1-------1---1---1-------1---1---1-------1---1---1-------1---1----|
G|--------------------------------------------------------------------|
D|-2---2---2---2---2---2---2---2---3---3---3---3---3---3---3---3------|
A|--------------------------------------------------------------------|
E|--------------------------------------------------------------------|
   Where you                       Will lay on the rug.       While

e|-------3---------------3---------------3---------------3------------|
B|---1-------1---1---1-------1---1---1-------1---1---1-------1---1----|
G|--------------------------------------------------------------------|
D|-2---2---2---2---2---2---2---2---3---3---3---3---3---3---3---3------|
A|--------------------------------------------------------------------|
E|--------------------------------------------------------------------|
   I                             Play with the dog.

e|-------3---------------3---------------3---------------3------------|
B|---1-------1---1---1-------1---1---1-------1---1---1-------1---1----|
G|--------------------------------------------------------------------|
D|-2---2---2---2---2---2---2---2---3---3---3---3---3---3---3---3------|
A|--------------------------------------------------------------------|
E|--------------------------------------------------------------------|
   And you won't be too much.

e|-------3---------------3---------------3---------------3------------|
B|---1-------1---1---1-------1---1---1-------1---1---1-------1---1----|
G|--------------------------------------------------------------------|
D|-2---2---2---2---2---2---2---2---3---3---3---3---3---3---3---3------|
A|--------------------------------------------------------------------|
E|--------------------------------------------------------------------|
   Cos this is too much.

e|-------3---------------3---------------3---------------3------------|
B|---1-------1---1---1-------1---1---1-------1---1---1-------1---1----|
G|--------------------------------------------------------------------|
D|-2---2---2---2---2---2---2---2---3---3---3---3---3---3---3---3------|
A|--------------------------------------------------------------------|
E|--------------------------------------------------------------------|
     And this is too much for me to hold.

e|-------3---------------3---------------3---------------3------------|
B|---1-------1---1---1-------1---1---1-------1---1---1-------1---1----|
G|--------------------------------------------------------------------|
D|-2---2---2---2---2---2---2---2---3---3---3---3---3---3---3---3------|
A|--------------------------------------------------------------------|
E|--------------------------------------------------------------------|
     This is too much for me to hold.


e|--------------------------------------------------------------------|
B|---1---1---1---1---1---1---1---1---1---1---1---1---1---1---1---1----|
G|---0---0---0---0---0---0---0---0---0---0---0---0---0---0---0---0----|
D|-2---2---3---3-------------------2---2---3---3----------------------|
A|-----------------0---0---2---2-------------------0---0---2---2------|
E|--------------------------------------------------------------------|
   (amazing ingrid michaelson voice) mmmmmm.

e|--------------------------------------------------------------------|
B|---1---1---1---1---1---1---1---1---1---1---1---1---1---1---1---1----|
G|---0---0---0---0---0---0---0---0---0---0---0---0---0---0---0---0----|
D|-2---2---3---3-------------------2---2---3---3---0---0---0---0------|
A|-----------------0---0---2---2--------------------------------------|
E|--------------------------------------------------------------------|
     mmmmm                         Home home home

Chorus
e|--------------------------------------------------------------------|
B|---1---1---1---1---1---1---1---1---1---1---1---1---1---1---1---1----|
G|---0---0---0---0---0---0---0---0---0---0---0---0---0---0---0---0----|
D|-2---2---3---3-------------------2---2---3---3----------------------|
A|-----------------0---0---2---2-------------------0---0---2---2------|
E|--------------------------------------------------------------------|
   And are we there yet?           And are we there yet?

e|--------------------------------------------------------------------|
B|---1---1---1---1---1---1---1---1---1---1---1---1---1---1---1---1----|
G|---0---0---0---0---0---0---0---0---0---0---0---0---0---0---0---0----|
D|-2---2---3---3-------------------2---2---3---3---0---0---0---0------|
A|-----------------0---0---2---2--------------------------------------|
E|--------------------------------------------------------------------|
    And are we there yet?                   Home Home home.

e|--------------------------------------------------------------------|
B|---1---1---1---1---1---1---1---1---1---1---1---1---1---1---1---1----|
G|---0---0---0---0---0---0---0---0---0---0---0---0---0---0---0---0----|
D|-2---2---3---3---0---0---0---0---2---2---3---3---0---0---0---0------|
A|--------------------------------------------------------------------|
E|--------------------------------------------------------------------|
      Home home home.                               Home

outro:
e|-----------------------------------3---3---3---3---3---3---3---3----|
B|---1---1---1---1---1---1---1---1---1---1---1---1---1---1---1---1----|
G|---0---0---0---0---0---0---0---0---0---0---0---0---0---0---0---0----|
D|--------------------------------------------------------------------|
A|-3---3---3---3---3---3---3---3---3---3---3---3---3---3---3---3------|
E|--------------------------------------------------------------------|
                                   And are we there yet?

e|---3---3---3---3---3---3---3---3---3---3---3---3---3---3---3---3----|
B|---1---1---1---1---1---1---1---1---1---1---1---1---1---1---1---1----|
G|---0---0---0---0---0---0---0---0---0---0---0---0---0---0---0---0----|
D|--------------------------------------------------------------------|
A|-3---3---3---3---3---3---3---3---3---3---3---3---3---3---3---3------|
E|--------------------------------------------------------------------|
       Are we there yet?

e|---3---3---3---3---3----|
B|---1---1---1---1---1----|
G|---0---0---0---0---0----|
D|------------------------|
A|-3---3---3---3---3------|
E|------------------------|
   And are we there...
            
Hard to play? Try these video lessons and learn fast. | Correct




comments powered by Disqus
↑ Back to top | Tablatures and chords are parodies/interpretations of the original songs. You may use it for private study, scholarship, research or language learning purposes only