>
 >
Zombie Inc. 1

Zombie Inc. 1 Guitar Tabs

In Flames - Zombie Inc. 1 chords, tabs, tablatures, lyrics

Guitar lessons | Add/correct | Request | Top 50 tabs Artists:  A B C D E F G H I J K L M N O P Q R S T U V W X Y Z 0-9

Zombie Inc. 1 Guitar Tabs – In Flames

CD, Sheet music, Poster

Do you like Zombie Inc. 1? Share with your friends now
TabsTabs v2
This is a set of four guitars.

C :------------------|-----------------|------------------|
G :------------------|-----------------|------------------|
Eb :------------------|-------9---------|-------9--------7-|
Bb :10--9--10---9-----|-----9-----------|10---------10-----|
F :----------------7-|--10-------------|------------------|
C :------------------|-----------------|------------------|

C :------------------|-----------------|------------------|
G :------------------|-----------------|------------------|
Eb :-2----------------|-----------------|-5----------------|
Bb :-2--------------2-|-----------------|-5--------------5-|
F :-0--------------2-|-----------------|-3--------------5-|
C :----------------0-|-----------------|----------------3-|

C :------------------|-----------------|------------------|
G :------------------|-----------------|------------------|
Eb :------------------|-----------------|------------------|
Bb :------------------|-----------------|------------------|
F :------------------|-----------------|------------------|
C :------------------|-----------------|------------------|


C :-----------------|------------------|-----------------|
G :-----------------|------------------|-----------------|
Eb :-----------------|------------------|-------9---------|
Bb :--10-9-7---------|10--9--10---9-----|-----9-----------|
F :-----------------|----------------7-|--10-------------|
C :-----------------|------------------|-----------------|

C :-----------------|------------------|-----------------|
G :-----------------|------------------|-----------------|
Eb :-----------------|-2----------------|-----------------|
Bb :-----------------|-2--------------2-|-----------------|
F :-----------------|-0--------------2-|-----------------|
C :-----------------|----------------0-|-----------------|

C :-----------------|------------------|-----------------|
G :-----------------|------------------|-----------------|
Eb :-----------------|------------------|-----------------|
Bb :-----------------|------------------|-----------------|
F :-----------------|------------------|-----------------|
C :-----------------|------------------|-----------------|


C :------------------|------------------|--------------------|
G :------------------|------------------|--------------------|
Eb :-------7--------7-|------------------|--------------------|
Bb :10---------10-----|--10-9------------|12--11--12---11-----|
F :------------------|-------10---------|------------------9-|
C :------------------|------------------|--------------------|

C :------------------|------------------|--------------------|
G :------------------|------------------|--------------------|
Eb :-5--------------7-|------------------|-4------------------|
Bb :-5--------------7-|------------------|-4----------------4-|
F :-3--------------5-|------------------|-2----------------4-|
C :------------------|------------------|------------------2-|

C :------------------|------------------|--------------------|
G :------------------|------------------|--------------------|
Eb :------------------|------------------|--------------------|
Bb :------------------|------------------|--------------------|
F :------------------|------------------|--------------------|
C :------------------|------------------|--------------------|


C :-------------------|-------------------|------------------|
G :-------------------|-------------------|------------------|
Eb :--------11---------|-------11--------9-|------------------|
Bb :-----11------------|12----------12-----|--12-11-9---------|
F :--12---------------|-------------------|------------------|
C :-------------------|-------------------|------------------|

C :-------------------|-------------------|------------------|
G :-------------------|-------------------|------------------|
Eb :-------------------|-7-----------------|------------------|
Bb :-------------------|-7---------------7-|------------------|
F :-------------------|-5---------------7-|------------------|
C :-------------------|-----------------5-|------------------|

C :-------------------|-------------------|------------------|
G :-------------------|-------10--------8-|------------------|
Eb :-------------------|11----------11-----|--11--9-9---------|
Bb :-------------------|-------------------|------------------|
F :-------------------|-------------------|------------------|
C :-------------------|-------------------|------------------|


C :--------------------|-------------------|------------------|
G :--------------------|-------------------|------------------|
Eb :--------------------|--------11---------|-------9--------9-|
Bb :12--11--12---11-----|-----11------------|12---------12-----|
F :------------------9-|--12---------------|------------------|
C :--------------------|-------------------|------------------|

C :--------------------|-------------------|------------------|
G :--------------------|-------------------|------------------|
Eb :-4------------------|-------------------|-7--------------9-|
Bb :-4----------------4-|-------------------|-7--------------9-|
F :-2----------------4-|-------------------|-5--------------7-|
C :------------------2-|-------------------|------------------|

C :--------------------|-------------------|------------------|
G :--------------------|-------------------|------------------|
Eb :-*------------------|-------------------|------------------|
Bb :--------------------|-------------------|------------------|
F :--------------------|-------------------|------------------|
C :--------------------|-------------------|------------------|


C :-------------------||*----------------|------------------|
G :-------------------||*----------------|------------------|
Eb :-------------------|| ----------------|------------------|
Bb :--12-11------------|| ----------------|--------------2---|
F :--------12---------|| 7-7-7-7-7-7-7-7-|7-7-7-7-7-7---2---|
C :-------------------|| 5-5-5-5-5-5-5-5-|5-5-5-5-5-5---0---|

C :-------------------||*----------------|------------------|
G :-------------------||*----------------|--------3---------|
Eb :-------------------|| 2-4-5-4-2-4-5-4-|2-4-5-4---5-4-5---|
Bb :-------------------|| ----------------|------------------|
F :-------------------|| ----------------|------------------|
C :-------------------|| ----------------|------------------|

C :-------------------||*----------------|------------------|
G :-------------------||*----------------|------------------|
Eb :-------------------|| ----------------|------------------|
Bb :-------------------|| ----------------|------------------|
F :-------------------|| ----------------|------------------|
C :-------------------|| ----------------|------------------|


C :----------------|----------------|----------------|
G :----------------|----------------|----------------|
Eb :----------------|----------------|----------------|
Bb :----------------|------------5---|----------------|
F :3-3-3-3-3-3-3-3-|3-3-3-3-3-3-5---|7-7-7-7-7-7-7-7-|
C :1-1-1-1-1-1-1-1-|1-1-1-1-1-1-3---|5-5-5-5-5-5-5-5-|

C :----------------|----------------|----------------|
G :----------------|------------3---|----------------|
Eb :--5-4-5---5-4-5-|--5-4-5---5-----|2-4-5-4-2-4-5-4-|
Bb :3-------3-------|3-------3-------|----------------|
F :----------------|----------------|----------------|
C :----------------|----------------|----------------|

C :----------------|----------------|----------------|
G :----------------|----------------|----------------|
Eb :----------------|----------------|----------------|
Bb :----------------|----------------|----------------|
F :----------------|----------------|----------------|
C :----------------|----------------|----------------|


C :------------------|----------------|----------------*1|
G :------------------|----------------|----------------*||
Eb :------------------|----------------|---------------- ||
Bb :--------------2---|----------------|---------------- ||
F :7-7-7-7-7-7---2---|3-3-3-3-3-3-3-3-|3-3-3-3-2-3-5--- ||
C :5-5-5-5-5-5---0---|1-1-1-1-1-1-1-1-|1-1-1----------- ||

C :------------------|----------------|----------------*1|
G :--------3---------|----------------|------------3---*||
Eb :2-4-5-4---5-4-5---|--5-4-5---5-4-5-|--5-4-5---5----- ||
Bb :------------------|3-------3-------|3-------3------- ||
F :------------------|----------------|---------------- ||
C :------------------|----------------|---------------- ||

C :------------------|----------------|----------------*1|
G :------------------|----------------|----------------*||
Eb :------------------|----------------|---------------- ||
Bb :------------------|----------------|---------------- ||
F :------------------|----------------|---------------- ||
C :------------------|----------------|---------------- ||


C :----------------|------------------|----------------------|
G :----------------|------------------|----------------------|
Eb :----------------|---------7--------|----------------------|
Bb :----------------|7---9-10-----10-9-|----------------------|
F :8---7-8---8-----|------------------|10-10-10-10---10---10-|
C :----------------|------------------|----------------------|

C :----------------|------------------|----------------------|
G :----------------|------------------|----------------------|
Eb :----------------|2-----------------|----------------------|
Bb :3---------------|2-----------------|-5--------------------|
F :3---------------|0-----------------|-5--------------------|
C :1---------------|------------------|-3--------------------|

C :----------------|------------------|----------------------|
G :----------------|------------------|----------------------|
Eb :----------------|2-----------------|----------------------|
Bb :3---------------|2-----------------|-5--------------------|
F :3---------------|0-----------------|-5--------------------|
C :1---------------|------------------|-3--------------------|


C :--------------------|----------------|------------------|
G :--------------------|----------------|------------------|
Eb :9-10----9-----------|----------------|---------7--------|
Bb :-----12---10-12-9---|----------------|7---9-10-----10-9-|
F :--------------------|8---7-8---8-----|------------------|
C :--------------------|----------------|------------------|

C :--------------------|----------------|------------------|
G :--------------------|----------------|------------------|
Eb :5-------------------|----------------|2-----------------|
Bb :5-------------------|3---------------|2-----------------|
F :3-------------------|3---------------|0-----------------|
C :--------------------|1---------------|------------------|

C :--------------------|----------------|------------------|
G :--------------------|----------------|------------------|
Eb :5--7--4-5-----4-----|----------------|2-----------------|
Bb :-----------7----5---|3---------------|2-----------------|
F :--------------------|3---------------|0-----------------|
C :--------------------|1---------------|------------------|


C :----------------------|--------------------||*----------------|
G :----------------------|--------------------||*----------------|
Eb :----------------------|9-10----9-----------|| ----------------|
Bb :----------------------|-----12---10-12-9---|| ----------------|
F :10-10-10-10---10---10-|--------------------|| 7-7-7-7-7-7-7-7-|
C :----------------------|--------------------|| 5-5-5-5-5-5-5-5-|

C :----------------------|--------------------||*----------------|
G :----------------------|--------------------||*----------------|
Eb :----------------------|5--*----------------|| 2-4-5-4-2-4-5-4-|
Bb :-5--------------------|5--*----------------|| ----------------|
F :-5--------------------|3--*----------------|| ----------------|
C :-3--------------------|--------------------|| ----------------|

C :----------------------|--------------------||*----------------|
G :----------------------|--------------------||*----------------|
Eb :----------------------|5--7--4-5-----4-----|| ----------------|
Bb :-5--------------------|-----------7----5---|| *---------------|
F :-5--------------------|--------------------|| ----------------|
C :-3--------------------|--------------------|| ----------------|


C :------------------|----------------|----------------|
G :------------------|----------------|----------------|
Eb :------------------|----------------|----------------|
Bb :--------------2---|----------------|------------5---|
F :7-7-7-7-7-7---2---|3-3-3-3-3-3-3-3-|3-3-3-3-3-3-5---|
C :5-5-5-5-5-5---0---|1-1-1-1-1-1-1-1-|1-1-1-1-1-1-3---|

C :------------------|----------------|----------------|
G :--------3---------|----------------|------------3---|
Eb :2-4-5-4---5-4-5---|--5-4-5---5-4-5-|--5-4-5---5-----|
Bb :------------------|3-------3-------|3-------3-------|
F :------------------|----------------|----------------|
C :------------------|----------------|----------------|

C :------------------|----------------|----------------|
G :------------------|----------------|----------------|
Eb :------------------|----------------|----------------|
Bb :------------------|----------------|----------------|
F :------------------|----------------|----------------|
C :------------------|----------------|----------------|


C :----------------|------------------|----------------|
G :----------------|------------------|----------------|
Eb :----------------|------------------|----------------|
Bb :----------------|--------------2---|----------------|
F :7-7-7-7-7-7-7-7-|7-7-7-7-7-7---2---|3-3-3-3-3-3-3-3-|
C :5-5-5-5-5-5-5-5-|5-5-5-5-5-5---0---|1-1-1-1-1-1-1-1-|

C :----------------|------------------|----------------|
G :----------------|--------3---------|----------------|
Eb :2-4-5-4-2-4-5-4-|2-4-5-4---5-4-5---|--5-4-5---5-4-5-|
Bb :----------------|------------------|3-------3-------|
F :----------------|------------------|----------------|
C :----------------|------------------|----------------|

C :----------------|------------------|----------------|
G :----------------|------------------|----------------|
Eb :----------------|------------------|----------------|
Bb :----------------|------------------|----------------|
F :----------------|------------------|----------------|
C :----------------|------------------|----------------|


C :----------------*1|----------------|------------------|
G :----------------*||----------------|------------------|
Eb :---------------- ||----------------|---------7--------|
Bb :---------------- ||----------------|7---9-10-----10-9-|
F :3-3-3-3-2-3-5--- ||8---7-8---8-----|------------------|
C :1-1-1----------- ||----------------|------------------|

C :----------------*1|----------------|------------------|
G :------------3---*||----------------|------------------|
Eb :--5-4-5---5----- ||----------------|2-----------------|
Bb :3-------3------- ||3---------------|2-----------------|
F :---------------- ||3---------------|0-----------------|
C :---------------- ||1---------------|------------------|

C :----------------*1|----------------|------------------|
G :----------------*||----------------|------------------|
Eb :---------------- ||----------------|2-----------------|
Bb :---------------- ||3---------------|2-----------------|
F :---------------- ||3---------------|0-----------------|
C :---------------- ||1---------------|------------------|


C :----------------------|--------------------|----------------|
G :----------------------|--------------------|----------------|
Eb :----------------------|9-10----9-----------|----------------|
Bb :----------------------|-----12---10-12-9---|----------------|
F :10-10-10-10---10---10-|--------------------|8---7-8---8-----|
C :----------------------|--------------------|----------------|

C :----------------------|--------------------|----------------|
G :----------------------|--------------------|----------------|
Eb :----------------------|5-------------------|----------------|
Bb :-5--------------------|5-------------------|3---------------|
F :-5--------------------|3-------------------|3---------------|
C :-3--------------------|--------------------|1---------------|

C :----------------------|--------------------|----------------|
G :----------------------|--------------------|----------------|
Eb :----------------------|5--7--4-5-----4-----|----------------|
Bb :-5--------------------|-----------7----5---|3---------------|
F :-5--------------------|--------------------|3---------------|
C :-3--------------------|--------------------|1---------------|


C :------------------|----------------------|--------------------|
G :------------------|----------------------|--------------------|
Eb :---------7--------|----------------------|9-10----9-----------|
Bb :7---9-10-----10-9-|----------------------|-----12---10-12-9---|
F :------------------|10-10-10-10---10---10-|--------------------|
C :------------------|----------------------|--------------------|

C :------------------|----------------------|--------------------|
G :------------------|----------------------|--------------------|
Eb :2-----------------|----------------------|5-------------------|
Bb :2-----------------|-5--------------------|5-------------------|
F :0-----------------|-5--------------------|3-------------------|
C :------------------|-3--------------------|--------------------|

C :------------------|----------------------|--------------------|
G :------------------|----------------------|--------------------|
Eb :2-----------------|----------------------|5--7--4-5-----4-----|
Bb :2-----------------|-5--------------------|-----------7----5---|
F :0-----------------|-5--------------------|--------------------|
C :------------------|-3--------------------|--------------------|


C :----------------|------------------|----------------------|
G :----------------|------------------|----------------------|
Eb :----------------|---------7--------|----------------------|
Bb :----------------|7---9-10-----10-9-|----------------------|
F :8---7-8---8-----|------------------|10-10-10-10---10---10-|
C :----------------|------------------|----------------------|

C :----------------|------------------|----------------------|
G :----------------|------------------|----------------------|
Eb :----------------|2-----------------|----------------------|
Bb :3---------------|2-----------------|-5--------------------|
F :3---------------|0-----------------|-5--------------------|
C :1---------------|------------------|-3--------------------|

C :----------------|------------------|----------------------|
G :----------------|------------------|----------------------|
Eb :----------------|2-----------------|----------------------|
Bb :3---------------|2-----------------|-5--------------------|
F :3---------------|0-----------------|-5--------------------|
C :1---------------|------------------|-3--------------------|


C :--------------------|----------------|------------------|
G :--------------------|----------------|------------------|
Eb :9-10----9-----------|----------------|---------7--------|
Bb :-----12---10-12-9---|----------------|7---9-10-----10-9-|
F :--------------------|8---7-8---8-----|------------------|
C :--------------------|----------------|------------------|

C :--------------------|----------------|------------------|
G :--------------------|----------------|------------------|
Eb :5-------------------|----------------|2-----------------|
Bb :5-------------------|3---------------|2-----------------|
F :3-------------------|3---------------|0-----------------|
C :--------------------|1---------------|------------------|

C :--------------------|----------------|------------------|
G :--------------------|----------------|------------------|
Eb :5--7--4-5-----4-----|----------------|2-----------------|
Bb :-----------7----5---|3---------------|2-----------------|
F :--------------------|3---------------|0-----------------|
C :--------------------|1---------------|------------------|


C :----------------------|--------------------|--------------------|
G :----------------------|--------------------|--------------------|
Eb :----------------------|9-10----9-----------|9-10----9-----------|
Bb :----------------------|-----12---10-12-9---|-----12---10-12-9---|
F :10-10-10-10---10---10-|--------------------|--------------------|
C :----------------------|--------------------|--------------------|

C :----------------------|--------------------|--------------------|
G :----------------------|--------------------|--------------------|
Eb :----------------------|5-------------------|5-----*-------------|
Bb :-5--------------------|5-------------------|5-----*-------------|
F :-5--------------------|3-------------------|3-----*-------------|
C :-3--------------------|--------------------|--------------------|

C :----------------------|--------------------|--------------------|
G :----------------------|--------------------|--------------------|
Eb :----------------------|5--7--4-5-----4-----|5--7--4-5-----4-----|
Bb :-5--------------------|-----------7----5---|-----------7----5---|
F :-5--------------------|--------------------|--------------------|
C :-3--------------------|--------------------|--------------------|


C :----------------|----------------|----------------|----------------|
G :----------------|----------------|----------------|----------------|
Eb :----------------|------4---------|------4-------2-|----------------|
Bb :5--4--5---4-----|----4-----------|5---------5-----|--5-4-2---------|
F :--------------2-|--5-------------|----------------|----------------|
C :----------------|----------------|----------------|----------------|

C :----------------|----------------|----------------|----------------|
G :----------------|----------------|----------------|----------------|
Eb :--------------4-|----------------|--------------7-|----------------|
Bb :2-------------4-|----------------|5-------------7-|----------------|
F :2-------------2-|----------------|5-------------5-|----------------|
C :0---------------|----------------|3---------------|----------------|

C :----------------|----------------|----------------|----------------|
G :----------------|----------------|----------------|----------------|
Eb :----------------|----------------|----------------|----------------|
Bb :*---------------|----------------|----------------|----------------|
F :----------------|----------------|----------------|----------------|
C :----------------|----------------|----------------|----------------|


C :----------------|----------------|----------------|----------------|
G :----------------|----------------|----------------|----------------|
Eb :----------------|------4---------|------4-------2-|----------------|
Bb :5--4--5---4-----|----4-----------|5---------5-----|--5-4-----------|
F :--------------2-|--5-------------|----------------|------5---------|
C :----------------|----------------|----------------|----------------|

C :----------------|----------------|----------------|----------------|
G :----------------|----------------|----------------|----------------|
Eb :--------------4-|----------------|--------------7-|----------------|
Bb :2-------------4-|----------------|5-------------7-|----------------|
F :2-------------2-|----------------|5-------------5-|----------------|
C :0---------------|----------------|3---------------|----------------|

C :----------------|----------------|----------------|----------------|
G :----------------|----------------|----------------|----------------|
Eb :----------------|----------------|----------------|----------------|
Bb :----------------|----------------|----------------|----------------|
F :----------------|----------------|----------------|----------------|
C :----------------|----------------|----------------|----------------|


C :----------------|------7---------|------7-------5-|----------------|
G :8--7--8---7-----|----7-----------|8---------8-----|--8-7-5---------|
Eb :--------------4-|--7-------------|----------------|----------------|
Bb :----------------|----------------|----------------|----------------|
F :----------------|----------------|----------------|----------------|
C :----------------|----------------|----------------|----------------|

C :----------------|----------------|----------------|----------------|
G :----------------|----------------|----------------|----------------|
Eb :--------------4-|----------------|--------------7-|----------------|
Bb :2-------------4-|----------------|5-------------7-|----------------|
F :2-------------2-|----------------|5-------------5-|----------------|
C :0---------------|----------------|3---------------|----------------|

C :----------------|----------------|----------------|----------------|
G :----------------|----------------|----------------|----------------|
Eb :----------------|----------------|----------------|----------------|
Bb :----------------|----------------|----------------|----------------|
F :----------------|----------------|----------------|----------------|
C :----------------|----------------|----------------|----------------|


C :----------------|------7---------|------7---------5-|
G :8--7--8---7-----|----7-----------|8---------8-------|
Eb :--------------4-|--7-------------|------------------|
Bb :----------------|----------------|------------------|
F :----------------|----------------|------------------|
C :----------------|----------------|------------------|

C :----------------|----------------|------------------|
G :----------------|----------------|------------------|
Eb :--------------4-|----------------|----------------7-|
Bb :2-------------4-|----------------|5---------------7-|
F :2-------------2-|----------------|5-----5---5-5-5-5-|
C :0---------------|----------------|3-----3---3-3-3---|

C :----------------|----------------|------------------|
G :----------------|----------------|------------------|
Eb :----------------|----------------|------------------|
Bb :----------------|----------------|------------------|
F :----------------|----------------|------------------|
C :----------------|----------------|------------------|


C :------------------|------7---------5-|------------------|
G :--8-7-------------|8---------8-------|--8-7-------------|
Eb :------9-----------|------------------|------9-----------|
Bb :------------------|------------------|------------------|
F :------------------|------------------|------------------|
C :------------------|------------------|------------------|

C :------------------|------------------|------------------|
G :------------------|------------------|------------------|
Eb :------------------|----------------7-|------------------|
Bb :----7---7---7-7-7-|5---------------7-|----7---7---7-7-7-|
F :----5---5---5-5-5-|5-----5---5-5-5-5-|----5---5---5-5-5-|
C :------------------|3-----3---3-3-3---|------------------|

C :------------------|------------------|------------------|
G :------------------|------------------|------------------|
Eb :------------------|------------------|------------------|
Bb :------------------|------------------|------------------|
F :------------------|------------------|------------------|
C :------------------|------------------|------------------|


C :-----------------|----------------|-----------------|
G :-----------------|----------------|-----------------|
Eb :9----------------|----------------|-----------------|
Bb :-----------------|----------------|-----------------|
F :-----------------|----------------|-----------------|
C :-----------------|----------------|-----------------|

C :--------7------7-|--7-------------|--------7------7-|
G :--------8-p7---7-|--8-------------|--------8-p7---7-|
Eb :--------9------9-|--9-----------9-|--------9------9-|
Bb :*-------9------9-|--9-----------9-|--------9------9-|
F :*-------7------7-|--7-----------7-|--------7------7-|
C :-------------0---|------------0---|0---0--------0---|

C :-----------------|----------------|-----------------|
G :-----------------|----------------|-----------------|
Eb :-----------------|----------------|-----------------|
Bb :2----------------|----------------|-----------------|
F :2----------------|----------------|-----------------|
C :0----------------|----------------|-----------------|


C :----------------|-----------------|----------------|
G :----------------|-----------------|----------------|
Eb :----------------|*----------------|----------------|
Bb :----------------|-----------------|----------------|
F :----------------|-----------------|----------------|
C :----------------|-----------------|----------------|

C :--7-------------|--------7------7-|--7-------------|
G :--8-------------|--------8-p7---7-|--8-------------|
Eb :--9-----9-----9-|--------9------9-|--9-----9-----9-|
Bb :--9-----9-----9-|--------9------9-|--9-----9-----9-|
F :--7-----7-----7-|--------7------7-|--7-----7-----7-|
C :------------0---|0---0--------0---|------------0---|

C :----------------|-----------------|----------------|
G :----------------|-----------------|----------------|
Eb :----------------|-----------------|----------------|
Bb :----------------|*----------------|----------------|
F :----------------|*----------------|----------------|
C :----------------|*----------------|----------------|


C :-----------------|----------------|---12----14----15----17-|
G :-----------------|----------------|12----12----12----12----|
Eb :-----------------|----------------|------------------------|
Bb :-----------------|----------------|------------------------|
F :-----------------|----------------|------------------------|
C :-----------------|----------------|------------------------|

C :--------7------7-|--7-------------|-------------7----------|
G :--------8-p7---7-|--8-------------|-------------8----------|
Eb :--------9------9-|--9-----9-----9-|-------------9----------|
Bb :--------9------9-|--9-----9-----9-|-------------9----------|
F :--------7------7-|--7-----7-----7-|-------------7--------2-|
C :0---0--------0---|------------0---|-0----------------------|

C :-----------------|----------------|------------------------|
G :-----------------|----------------|------------------------|
Eb :-----------------|----------------|------------------------|
Bb :-----------------|----------------|------------------------|
F :-----------------|----------------|------------------------|
C :-----------------|----------------|------------------------|


C :15-14-----------------|------------------------|
G :------15--------------|10---12-10-12-10--------|
Eb :---------14-12---11---|-----------------12-----|
Bb :----------------------|------------------------|
F :----------------------|------------------------|
C :----------------------|------------------------|

C :-------2--------------|---------------0--------|
G :-------3----------3---|---------------1--------|
Eb :-------4----------4---|---------------0------2-|
Bb :-------4----------4---|-2-------------2------0-|
F :-------2----------2---|-3-------------3--------|
C :----------------------|------------------------|

C :----------------------|------------------------|
G :----------------------|------------------------|
Eb :----------------------|------------------------|
Bb :----------------------|------------------------|
F :----------------------|------------------------|
C :----------------------|------------------------|


C :------------------------|7-7--8--8-7-7-5-5-|3-3-2-2-3-2-------|
G :------------------------|8-8-10-10-8-8-7-7-|5-5-3-3-----3-----|
Eb :11---12-----------------|------------------|------------------|
Bb :--------14-12-14---14---|------------------|------------------|
F :------------------------|------------------|------------------|
C :------------------------|------------------|------------------|

C :---2-----2--3--2-0------|----------7-------|----2-------------|
G :---3-----3----------3---|----------8-------|----3---------3---|
Eb :---2-----2--------------|----------9-------|----4---------4---|
Bb :---0-----0--------------|----------9-------|----4---------4---|
F :------------------------|----------7-----2-|----2---------2---|
C :------------------------|0-----------------|------------------|

C :------------------------|------------------|------------------|
G :------------------------|------------------|------------------|
Eb :------------------------|------------------|------------------|
Bb :------------------------|------------------|------------------|
F :------------------------|------------------|------------------|
C :------------------------|------------------|------------------|


C :5-*-3-3-------*-|7-*-5-5---------*-|---7----------------|
G :7-*-5-5-------*-|8-*-7-7---------*-|-------10---8-7-8-7-|
Eb :----------------|------------------|9----9----9---------|
Bb :----------------|------------------|--------------------|
F :----------------|------------------|--------------------|
C :----------------|------------------|--------------------|

C :--------0-------|--2---2-3-2-0-----|----------7---------|
G :--------1-------|--3---3-------3---|----------8---------|
Eb :--------0-----2-|--2---2-----------|----------9---------|
Bb :2-------2-----0-|--0---0-----------|----------9---------|
F :3-------3-------|------------------|----------7-------2-|
C :----------------|------------------|0-------------------|

C :----------------|------------------|--10----8---7-5-7-5-|
G :----------------|------------------|8----8----8---------|
Eb :----------------|------------------|--------------------|
Bb :----------------|------------------|--------------------|
F :----------------|------------------|--------------------|
C :----------------|------------------|--------------------|


C :----------------|--7----------7-8-7-|--------7-----------|
G :------7-8-------|------10---8-------|10-8-10-----8-------|
Eb :9-7-9-----9-9-9-|9---9----9---------|--------------9-9-9-|
Bb :----------------|-------------------|--------------------|
F :----------------|-------------------|--------------------|
C :----------------|-------------------|--------------------|

C :----2-----------|---------0---------|---2----2-3-2-0-----|
G :----3-------3---|---------1---------|---3----3-------3---|
Eb :----4-------4---|---------0-------2-|---2----2-----------|
Bb :----4-------4---|2--------2-------0-|---0----0-----------|
F :----2-------2---|3--------3---------|--------------------|
C :----------------|-------------------|--------------------|

C :------5-7-------|--7----------7-8-7-|--------7-----------|
G :8-7-8-----8---8-|------10---8-------|10-8-10-----8-------|
Eb :----------------|9---9----9---------|--------------9-9-9-|
Bb :----------------|-------------------|--------------------|
F :----------------|-------------------|--------------------|
C :----------------|-------------------|--------------------|


C :---7----------------|----------------|7-7-8--8-8-10-10---10-|
G :-------10---8-7-8-7-|------7-8-------|----------------------|
Eb :9----9----9---------|9-7-9-----9-9-9-|----------------------|
Bb :--------------------|----------------|----------------------|
F :--------------------|----------------|----------------------|
C :--------------------|----------------|----------------------|

C :----------7---------|----2-----------|---------0------------|
G :----------8---------|----3-------3---|---------1------------|
Eb :----------9---------|----4-------4---|---------0----------2-|
Bb :----------9---------|----4-------4---|2--------2----------0-|
F :----------7-------2-|----2-------2---|3--------3------------|
C :0-------------------|----------------|----------------------|

C :--10----8---7-5-7-5-|------5-7-------|--7------------7-8--7-|
G :8----8----8---------|8-7-8-----8---8-|------10----8---------|
Eb :--------------------|----------------|9---9----9------------|
Bb :--------------------|----------------|----------------------|
F :--------------------|----------------|----------------------|
C :--------------------|----------------|----------------------|


C :12------14-----15---|12-------12-----14-|----14-----14-12----|
G :--------------------|-------------------|-----------------15-|
Eb :--------------------|-------------------|--------------------|
Bb :--------------------|-------------------|--------------------|
F :--------------------|-------------------|--------------------|
C :--------------------|-------------------|--------------------|

C :--------------------|-------------------|--------------------|
G :--------------------|-------------------|--------------------|
Eb :--------------------|-----------------4-|--------------------|
Bb :-7-7--7--7-4-4--4-4-|-2---------------4-|--------------------|
F :-5-5--5--5-2-2--2-2-|-2---------------2-|--------------------|
C :--------------------|-0-----------------|--------------------|

C :---------7----------|-------------------|--------------------|
G :10-8-10----8--------|-------------------|--------------------|
Eb :-------------9--9-9-|----------*--------|--------------------|
Bb :--------------------|-------------------|--------------------|
F :--------------------|-------------------|--------------------|
C :--------------------|-------------------|--------------------|


C :15-------15-----17-|----------17-19-20-|19-------17--15--17-|
G :-------------------|-------------------|--------------------|
Eb :-------------------|-------------------|--------------------|
Bb :-------------------|-------------------|--------------------|
F :-------------------|-------------------|--------------------|
C :-------------------|-------------------|--------------------|

C :-------------------|-------------------|--------------------|
G :-------------------|-------------------|--------------------|
Eb :-5---------------7-|-------------------|------------------4-|
Bb :-5---------------7-|-------------------|-2----------------4-|
F :-3---------------5-|-------------------|-2----------------2-|
C :-------------------|-------------------|-0------------------|

C :-------------------|-------------------|--------------------|
G :-------------------|-------------------|--------------------|
Eb :-------------------|-------------------|--------------------|
Bb :-------------------|-------------------|--------------------|
F :-------------------|-------------------|--------------------|
C :-------------------|-------------------|--------------------|


C :-----------------|----------------------|-------------------|
G :--15-------------|-----------12-13---12-|----------------15-|
Eb :-----------------|11-12-14--------------|----------12-14----|
Bb :-----------------|----------------------|-------------------|
F :-----------------|----------------------|-------------------|
C :-----------------|----------------------|-------------------|

C :-----------------|----------------------|-------------------|
G :-----------------|----------------------|-------------------|
Eb :-----------------|-5------------------7-|-------------------|
Bb :-----------------|-5------------------7-|-------------------|
F :-----------------|-3------------------5-|-------------------|
C :-----------------|----------------------|-------------------|

C :-----------------|----------------------|-------------------|
G :-----------------|----------------------|-------------------|
Eb :-----------------|----------------------|-------------------|
Bb :-----------------|----------------------|-------------------|
F :-----------------|----------------------|-------------------|
C :-----------------|----------------------|-------------------|


C :|*---7----------------|----------------|--7----------7-8-7-|
G :|*-------10---8-7-8-7-|------7-8-------|------10---8-------|
Eb :| 9----9----9---------|9-7-9-----9---9-|9---9----9---------|
Bb :| --------------------|----------------|-------------------|
F :| --------------------|----------------|-------------------|
C :| --------------------|----------------|-------------------|

C :|*--------------------|----------------|-------------------|
G :|*--------------------|----------------|-------------------|
Eb :| 9-------------------|----------------|5------------------|
Bb :| 9----9--9-9-9-9---9-|9---------------|5---5--5-5-5-5---5-|
F :| 7----7--7-7-7-7---7-|9---9-9-9-9-9-9-|3---3--3-3-3-3---3-|
C :| --------------------|7---7-7-7-7-7-7-|-------------------|

C :|*--10----8---7-5-7-5-|------5-7-------|--7----------7-8-7-|
G :|*8----8----8---------|8-7-8-----8---8-|------10---8-------|
Eb :| --------------------|----------------|9---9----9---------|
Bb :| --------------------|----------------|-------------------|
F :| --------------------|----------------|-------------------|
C :| --------------------|----------------|-------------------|


C :--------7---------*1|----------------|----------------|
G :10-8-10---8-------*||----------------|----------------|
Eb :------------9---9- ||9-------*-------|----------------|
Bb :------------------ ||9-------*-------|----------------|
F :------------------ ||7-------*-------|----------------|
C :------------------ ||----------------|----------------|

C :------------------*1|--------7-------|----2-------2---|
G :------------------*||--------8-7-----|----3-------3---|
Eb :-7---------------- ||--------9-------|----4-------4---|
Bb :-7----7-7-7-7-7-7- ||*-------9-------|----4-------4---|
F :-5----5-5-5-5-5-5- ||*-------7-----2-|--2-2-------2-2-|
C :------------------ ||0---------------|----------------|

C :--------7---------*1|----------------|----------------|
G :10-8-10---8-------*||----------------|----------------|
Eb :------------9---9- ||9-------*-------|----------------|
Bb :------------------ ||9-------*-------|----------------|
F :------------------ ||7-------*-------|----------------|
C :------------------ ||----------------|----------------|


C :----------------|------------------|----------------|
G :----------------|------------------|----------------|
Eb :----------------|------------------|----------------|
Bb :----------------|------------------|----------------|
F :----------------|------------------|----------------|
C :----------------|------------------|----------------|

C :--------0-------|----2---2-3-2-----|--------7-------|
G :--------1-------|----3---3-----3-0-|--------8-7-----|
Eb :--------0-------|----2---2---------|--------9-------|
Bb :--------2-----0-|--0-0---0---------|--------9-------|
F :3-------3-------|------------------|--------7-----2-|
C :----------------|------------------|0---------------|

C :----------------|------------------|----------------|
G :----------------|------------------|----------------|
Eb :----------------|------------------|----------------|
Bb :----------------|------------------|----------------|
F :----------------|------------------|----------------|
C :----------------|------------------|----------------|


C :----------------|----------------|----------------|
G :----------------|----------------|----------------|
Eb :----------------|----------------|----------------|
Bb :----------------|----------------|7-7-7-7-4-4-4-4-|
F :----------------|----------------|5-5-5-5-2-2-2-2-|
C :----------------|----------------|----------------|

C :----2-------2---|--------0-------|----------------|
G :----3-------3---|--------1-------|----------------|
Eb :----4-------4---|--------0-------|----------------|
Bb :----4-------4---|--------2-----0-|7-7-7-7-4-4-4-4-|
F :--2-2-------2-2-|3-------3-------|5-5-5-5-2-2-2-2-|
C :----------------|----------------|----------------|

C :----------------|----------------|----------------|
G :----------------|----------------|----------------|
Eb :----------------|----------------|----------------|
Bb :----------------|----------------|----------------|
F :----------------|----------------|----------------|
C :----------------|----------------|----------------|


C :|*----------------|------------------|----------------|
G :|*----------------|------------------|----------------|
Eb :| ----------------|------------------|----------------|
Bb :| ----------------|--------------2---|----------------|
F :| 7-7-7-7-7-7-7-7-|7-7-7-7-7-7---2---|3-3-3-3-3-3-3-3-|
C :| 5-5-5-5-5-5-5-5-|5-5-5-5-5-5---0---|1-1-1-1-1-1-1-1-|

C :|*----------------|------------------|----------------|
G :|*----------------|--------3---------|----------------|
Eb :| 2-4-5-4-2-4-5-4-|2-4-5-4---5-4-5---|--5-4-5---5-4-5-|
Bb :| ----------------|------------------|3-------3-------|
F :| ----------------|------------------|----------------|
C :| ----------------|------------------|----------------|

C :|*----------------|------------------|----------------|
G :|*----------------|------------------|----------------|
Eb :| ----------------|------------------|----------------|
Bb :| ----------------|------------------|----------------|
F :| ----------------|------------------|----------------|
C :| ----------------|------------------|----------------|


C :----------------|----------------|------------------|
G :----------------|----------------|------------------|
Eb :----------------|----------------|------------------|
Bb :------------5---|----------------|--------------2---|
F :3-3-3-3-3-3-5---|7-7-7-7-7-7-7-7-|7-7-7-7-7-7---2---|
C :1-1-1-1-1-1-3---|5-5-5-5-5-5-5-5-|5-5-5-5-5-5---0---|

C :----------------|----------------|------------------|
G :------------3---|----------------|--------3---------|
Eb :--5-4-5---5-----|2-4-5-4-2-4-5-4-|2-4-5-4---5-4-5---|
Bb :3-------3-------|----------------|------------------|
F :----------------|----------------|------------------|
C :----------------|----------------|------------------|

C :----------------|----------------|------------------|
G :----------------|----------------|------------------|
Eb :----------------|----------------|------------------|
Bb :----------------|----------------|------------------|
F :----------------|----------------|------------------|
C :----------------|----------------|------------------|


C :----------------|----------------*1|----------------|
G :----------------|----------------*||----------------|
Eb :----------------|---------------- ||----------------|
Bb :----------------|---------------- ||----------------|
F :3-3-3-3-3-3-3-3-|3-3-3-3-2-3-5--- ||8---7-8---8-----|
C :1-1-1-1-1-1-1-1-|1-1-1----------- ||----------------|

C :----------------|----------------*1|----------------|
G :----------------|------------3---*||----------------|
Eb :--5-4-5---5-4-5-|--5-4-5---5----- ||----------------|
Bb :3-------3-------|3-------3------- ||3---------------|
F :----------------|---------------- ||3---------------|
C :----------------|---------------- ||1---------------|

C :----------------|----------------*1|----------------|
G :----------------|----------------*||----------------|
Eb :----------------|---------------- ||----------------|
Bb :----------------|---------------- ||3---------------|
F :----------------|---------------- ||3---------------|
C :----------------|---------------- ||1---------------|


C :------------------|----------------------|--------------------|
G :------------------|----------------------|--------------------|
Eb :---------7--------|----------------------|9-10----9-----------|
Bb :7---9-10-----10-9-|----------------------|-----12---10-12-9---|
F :------------------|10-10-10-10---10---10-|--------------------|
C :------------------|----------------------|--------------------|

C :------------------|----------------------|--------------------|
G :------------------|----------------------|--------------------|
Eb :2-----------------|----------------------|5-------------------|
Bb :2-----------------|-5--------------------|5-------------------|
F :0-----------------|-5--------------------|3-------------------|
C :------------------|-3--------------------|--------------------|

C :------------------|----------------------|--------------------|
G :------------------|----------------------|--------------------|
Eb :2-----------------|----------------------|5--7--4-5-----4-----|
Bb :2-----------------|-5--------------------|-----------7----5---|
F :0-----------------|-5--------------------|--------------------|
C :------------------|-3--------------------|--------------------|


C :----------------|------------------|----------------------|
G :----------------|------------------|----------------------|
Eb :----------------|---------7--------|----------------------|
Bb :----------------|7---9-10-----10-9-|----------------------|
F :8---7-8---8-----|------------------|10-10-10-10---10---10-|
C :----------------|------------------|----------------------|

C :----------------|------------------|----------------------|
G :----------------|------------------|----------------------|
Eb :----------------|2-----------------|----------------------|
Bb :3---------------|2-----------------|-5--------------------|
F :3---------------|0-----------------|-5--------------------|
C :1---------------|------------------|-3--------------------|

C :----------------|------------------|----------------------|
G :----------------|------------------|----------------------|
Eb :----------------|2-----------------|----------------------|
Bb :3---------------|2-----------------|-5--------------------|
F :3---------------|0-----------------|-5--------------------|
C :1---------------|------------------|-3--------------------|


C :--------------------|----------------|------------------|
G :--------------------|----------------|------------------|
Eb :9-10----9-----------|----------------|---------7--------|
Bb :-----12---10-12-9---|----------------|7---9-10-----10-9-|
F :--------------------|8---7-8---8-----|------------------|
C :--------------------|----------------|------------------|

C :--------------------|----------------|------------------|
G :--------------------|----------------|------------------|
Eb :5-----*-------------|----------------|2-----------------|
Bb :5-----*-------------|3---------------|2-----------------|
F :3-----*-------------|3---------------|0-----------------|
C :--------------------|1---------------|------------------|

C :--------------------|----------------|------------------|
G :--------------------|----------------|------------------|
Eb :5--7--4-5-----4-----|----------------|2-----------------|
Bb :-----------7----5---|3---------------|2-----------------|
F :--------------------|3---------------|0-----------------|
C :--------------------|1---------------|------------------|


C :----------------------|--------------------|----------------|
G :----------------------|--------------------|----------------|
Eb :----------------------|9-10----9-----------|----------------|
Bb :----------------------|-----12---10-12-9---|----------------|
F :10-10-10-10---10---10-|--------------------|8---7-8---8-----|
C :----------------------|--------------------|----------------|

C :----------------------|--------------------|----------------|
G :----------------------|--------------------|----------------|
Eb :----------------------|5-------------------|----------------|
Bb :-5--------------------|5-------------------|3---------------|
F :-5--------------------|3-------------------|3---------------|
C :-3--------------------|--------------------|1---------------|

C :----------------------|--------------------|----------------|
G :----------------------|--------------------|----------------|
Eb :----------------------|5--7--4-5-----4-----|----------------|
Bb :-5--------------------|-----------7----5---|3---------------|
F :-5--------------------|--------------------|3---------------|
C :-3--------------------|--------------------|1---------------|


C :------------------|----------------------|--------------------|
G :------------------|----------------------|--------------------|
Eb :---------7--------|----------------------|9-10----9-----------|
Bb :7---9-10-----10-9-|----------------------|-----12---10-12-9---|
F :------------------|10-10-10-10---10---10-|--------------------|
C :------------------|----------------------|--------------------|

C :------------------|----------------------|--------------------|
G :------------------|----------------------|--------------------|
Eb :2-----------------|----------------------|5-------------------|
Bb :2-----------------|-5--------------------|5-------------------|
F :0-----------------|-5--------------------|3-------------------|
C :------------------|-3--------------------|--------------------|

C :------------------|----------------------|--------------------|
G :------------------|----------------------|--------------------|
Eb :2-----------------|----------------------|5--7--4-5-----4-----|
Bb :2-----------------|-5--------------------|-----------7----5---|
F :0-----------------|-5--------------------|--------------------|
C :------------------|-3--------------------|--------------------|


C :--------------------||*----------------|----------------|
G :--------------------||*----------------|----------------|
Eb :9-10----9-----------|| ----------------|------4---------|
Bb :-----12---10-12-9---|| 5--4--5---4-----|----4-----------|
F :--------------------|| --------------2-|--5-------------|
C :--------------------|| ----------------|----------------|

C :--------------------||*----------------|----------------|
G :--------------------||*----------------|----------------|
Eb :5-----*-------------|| --------------4-|----------------|
Bb :5-----*-------------|| 2-------------4-|----------------|
F :3-----*-------------|| 2-------------2-|----------------|
C :--------------------|| 0---------------|----------------|

C :--------------------||*----------------|----------------|
G :--------------------||*----------------|----------------|
Eb :5--7--4-5-----4-----|| ----------------|----------------|
Bb :-----------7----5---|| *---------------|----------------|
F :--------------------|| ----------------|----------------|
C :--------------------|| ----------------|----------------|


C :----------------|----------------|----------------|----------------|
G :----------------|----------------|----------------|----------------|
Eb :------4-------2-|----------------|----------------|------4---------|
Bb :5---------5-----|--5-4-2---------|5--4--5---4-----|----4-----------|
F :----------------|----------------|--------------2-|--5-------------|
C :----------------|----------------|----------------|----------------|

C :----------------|----------------|----------------|----------------|
G :----------------|----------------|----------------|----------------|
Eb :--------------7-|----------------|--------------4-|----------------|
Bb :5-------------7-|----------------|2-------------4-|----------------|
F :5-------------5-|----------------|2-------------2-|----------------|
C :3---------------|----------------|0---------------|----------------|

C :----------------|----------------|----------------|----------------|
G :----------------|----------------|----------------|----------------|
Eb :----------------|----------------|----------------|----------------|
Bb :----------------|----------------|----------------|----------------|
F :----------------|----------------|----------------|----------------|
C :----------------|----------------|----------------|----------------|


C :----------------|----------------|----------------|------7---------|
G :----------------|----------------|8--7--8---7-----|----7-----------|
Eb :------4-------2-|----------------|--------------4-|--7-------------|
Bb :5---------5-----|--5-4-----------|----------------|----------------|
F :----------------|------5---------|----------------|----------------|
C :----------------|----------------|----------------|----------------|

C :----------------|----------------|----------------|----------------|
G :----------------|----------------|----------------|----------------|
Eb :--------------7-|----------------|--------------4-|----------------|
Bb :5-------------7-|----------------|2-------------4-|----------------|
F :5-------------5-|----------------|2-------------2-|----------------|
C :3---------------|----------------|0---------------|----------------|

C :----------------|----------------|----------------|----------------|
G :----------------|----------------|----------------|----------------|
Eb :----------------|----------------|----------------|----------------|
Bb :----------------|----------------|----------------|----------------|
F :----------------|----------------|----------------|----------------|
C :----------------|----------------|----------------|----------------|


C :------7-------5-|----------------|----------------|------7---------|
G :8---------8-----|--8-7-5---------|8--7--8---7-----|----7-----------|
Eb :----------------|----------------|--------------4-|--7-------------|
Bb :----------------|----------------|----------------|----------------|
F :----------------|----------------|----------------|----------------|
C :----------------|----------------|----------------|----------------|

C :----------------|----------------|----------------|----------------|
G :----------------|----------------|----------------|----------------|
Eb :--------------7-|----------------|--------------4-|----------------|
Bb :5-------------7-|----------------|2-------------4-|----------------|
F :5-------------5-|----------------|2-------------2-|----------------|
C :3---------------|----------------|0---------------|----------------|

C :----------------|----------------|----------------|----------------|
G :----------------|----------------|----------------|----------------|
Eb :----------------|----------------|----------------|----------------|
Bb :----------------|----------------|----------------|----------------|
F :----------------|----------------|----------------|----------------|
C :----------------|----------------|----------------|----------------|





Comments


Popular In Flames tabs & chords
Behinged Space Bass Tabs
Clayman 5 Bass Tabs
The Jester Race 1 Bass Tabs
Alias Tabs
Dawn Of A New Day Tabs
Episode 6 Tabs
Graveland Tabs
HåRgalåTen Tabs
Metaphor Intro 1 Tabs
Varmlandsvisan Tabs


Song lyrics



↑ Back to top | Tablatures and chords are parodies/interpretations of the original songs. You may use it for private study, scholarship, research or language learning purposes only
© 2014 AZChords.com Contact us | Privacy policy | DMCA | Add/correct tabs | Request tabs | Top 50 tabs