» » »

In Flames, World Of Promises Tabs (ver.1)

Artists:  A B C D E F G H I J K L M N O P Q R S T U V W X Y Z # 

World Of Promises Tabs (ver.1)

In Flames Tabs
Rating:
0/5 (0 votes)
World Of Promises lessons Tabs too difficult? Try these video lessons and learn fast
                Alright this is off the in flames album Clayman
I've been real busy lately and i got a request for thisso i figured this out in a couple seconds so here ya go guy whos name i never got
it is verry imcomplete and yeah alright have fun
I'll finish it later when i have time
Tuned (C F Bb Eb G C)


  Gtr I's intro riff
|------------------------------------------|
|-8-7-5---------------8-7-5----------------|
|-------7---7-7S9-7-7-------7---7-7-9-9----|
|---------9-------------------9------------|
|------------------------------------------|
|------------------------------------------|

the partial verse riff
      PM--------|     PM--------|      PM--------|
|-------------------------------------------------------|
|-------------------------------------------------------|
|-------------------------------------------------------|
|----------------------------------7-7-------------7----|
|-2-2-------------5-5--------------5-5-5-5-5-5-5-5-7----|
|-0-0-0-0-0-0-0-0-3-3-3-3-3-3-3-3------------------5----|
            

comments powered by Disqus
↑ Back to top | In Flames Tabs for World Of Promises. Lyrics for acoustic guitar and electric guitar. Tablatures and chords are parodies/interpretations of the original songs. You may use it for private study, scholarship, research or language learning purposes only