>
 >
Whoracle

Whoracle Bass Tabs

In Flames - Whoracle chords, tabs, tablatures, lyrics

Guitar lessons | Add/correct | Request | Top 50 tabs Artists:  A B C D E F G H I J K L M N O P Q R S T U V W X Y Z 0-9

Whoracle Bass Tabs – In Flames

CD, Sheet music, Poster

Do you like Whoracle? Share with your friends now
Bass TabsTabs
Intro Riff            2x
D#--||-------------------------------------------------------------|----
A#--||-------------------------------------------------------------|----
F---||7-----------7----------5--5-----7-----------5--5--5--5--5--5--|----
C---||--7--7--------3h5--7--------------7--7--8--------------------|----



D#--------------------------------------|-------------------------------
A#--------------------------------------|-------------------------------
F------------------------------5--5--7--|-------------------------------
C---0--3--3-----5--7--7-----8-----------|-------------------------------


    Riff A                          2x
D#----------------------------------------------------------------------
A#----------------------------------------------------------------------
F------------5-----------7----------------------------------------------
C---0--0--0-----0--0--0-----0--7--7--7--7--7--7--7--7--7--7--7--0--0----


                                                 Riff B 2x
D#--------------------------------------------|-------------------------
A#--------------------------------------------|-------------------------
F---------------------------------------------|-------------------------
C---0--3--3--3--5--5--8--8--8--8--7--7--7--7--|--0--0--0-----------0----



D#----------------------------------------------------------|-----------
A#----------------------------------------------------------|-----------
F-----------------------------------------------------------|-----------
C---0--0--0-----0--0--0--0-----0-----3-----5-----5/8-----7--|-----------


    Riff A 2x            Chorus Riff               2x
D#-----------------|----------------------------------------------------
A#-----------------|----------------------------------------------------
F------------------|--7--7--7--------------5--5--5--5-------------------
C------------------|-----------7--7--7--7--------------5--5--5--5--3----



D#-----------------------------------------------|----------------------
A#-----------------------------------------------|----------------------
F------------5--5--5--5--3--3--3--5--7--7--7--7--|--7--7--------5--7----
C---3--3--3--------------------------------------|----------------------



D#----------------------------------------------------------------------
A#----------------------------------------------------------------------
F------7--7--7--7--7--7--7-----7-----7--------5-----7--7--7--7--3--5----
C---------------------------------0-----0--0-----0----------------------



D#----------------------------------------------------------------------
A#----------------------------------------------------------------------
F------7-----7--------5-----7-----7--7--7--7--7--7--7-----7-----7-------
C---------0-----0--0-----0-----0-----------------------------0-----0----


                                     4x
D#--------------------------------|-------------------------------------
A#--------------------------------|-------------------------------------
F------5-----7-----7--7--7--3--5--|-------------------------------------
C---0-----0-----0-----------------|--3--0--3--0--0--1--0--3--3--3--3----


                   4x
D#--------------|--------------------------------------------------|----
A#--------------|--------------------------------------------------|----
F---------------|--7-----7--------5-----7-----7--7--7--7--7--7--7--|----
C---3--3--3--3--|-----0-----0--0-----0-----0-----------------------|----


    Riff A 2x         Riff B 2x         Riff A 2x         Chorus 4x
D#-----------------|-----------------|-----------------|----------------
A#-----------------|-----------------|-----------------|----------------
F------------------|-----------------|-----------------|----------------
C------------------|-----------------|-----------------|----------------



D#-----|----------------------------------------------------------------
A#-----|----------------------------------------------------------------
F------|----------------------------------------------------------------
C------|--0--0--0--0--0--0--0--0--0-----3--3--3--3--3--3--3--3--3-------



D#----------------------------------------------------------------------
A#----------------------------------------------------------------------
F------------------------------5--5--5--5--5--5--5----------------------
C---7--7--7--7--7--7--7--7--7--------------------------0--0--0--0--0----



D#----------------------------------------------------------------------
A#----------------------------------------------------------------------
F-----------------------------------------------------------------------
C---0--0--0--0-----3--3--3--3--3--3--3--3--3-----7--7--7--7--7--7--7----


                         Chorus 2x         Outro       2x
D#--------------------|-----------------|-------------------------------
A#--------------------|-----------------|-------------------------------
F---------------------|-----------------|--7--7--7--7-------------------
C---7-----8--8--8--8--|-----------------|--------------7--5--5-----3----



D#----------------------------------------------------------------------
A#----------------------------------------------------------------------
F------------3--5--5-----7--7--7--7-----------5--5--5--5--5--5--5--5----
C---3--3--3--------------------------7--5--5----------------------------



D#--|-----------------------------------------|-------------------------
A#--|-----------------------------------------|-------------------------
F---|-----------------------------5--5-----7--|-------------------------
C---|--0--3--3-----5--7--7-----8--------------|-------------------------





Comments


Popular In Flames tabs & chords
Swim Bass Tabs
The Jester Race 2 Bass Tabs
Alias Intro Tabs
Bottled Tabs
Everlost ( Part Ii ) Tabs
Evil In A Closet Tabs
Reflect The Storm 3 Tabs
Suburban Me Tabs
Zombie Inc 2 Tabs
Trigger Ukulele


Song lyrics



↑ Back to top | Tablatures and chords are parodies/interpretations of the original songs. You may use it for private study, scholarship, research or language learning purposes only
© 2014 AZChords.com Contact us | Privacy policy | DMCA | Add/correct tabs | Request tabs | Top 50 tabs