» » »

In Flames, Varmlandsvisan Tabs (ver.1)

Artists:  A B C D E F G H I J K L M N O P Q R S T U V W X Y Z # 

Varmlandsvisan Tabs (ver.1)

In Flames Tabs
Rating:
0/5 (0 votes)
Varmlandsvisan lessons Tabs too difficult? Try these video lessons and learn fast
                So here it is! There may be some typo errors, the order may have gotten out of order but 
and most likely it did not. Should be 99% correct, I just wasn't too sure of 3 notes 
you may easily figure out on your own)

Good song
Good band

h= hammer on
p= pull off

Standard tuning: E A D G B e


Guitar 1
e|--------------------------------------------------------------------------|
B|---------------9-12-12p10-10-8h10p8---------------------------------------|
G|---------7h9-9----------------------9---9-7-7-10-9--------9-7-------------|
D|-7--9-10-------------------------------------------10--10------9---9h10--7|
A|--------------------------------------------------------------------------|
E|--------------------------------------------------------------------------|
Guitar 2
e|--------------------------------------------------------------------------|
B|--------------------------------------------------------------------------|
G|--2--2--------------------5--5----7--7----2--2----------------------------|
D|-2--2-2---2--2----3---5--5--5-5--7--7-7--2--2-2---2--2----3--3------------|
A|0--0---0-2--2-2--3---5--3--3---35--5---50--0---0-2--2-2--3--3-3-----------|
E|--------0--0---01--13--3------------------------0--0---01--1---1----------|


Guitar 1
e|---|
B|---|
G|---|
D|---|
A|-14-|
E|---|


Gutiar 1
e|--------------------------------------------------------------------------|
B|---------------9-12-12p10-10-8h10p8---------------------------------------|
G|---------7h9-9----------------------9---9-7-7-10-9--------9-7-------------|
D|-7--9-10-------------------------------------------10--10------9---9h10--7|
A|--------------------------------------------------------------------------|
E|--------------------------------------------------------------------------|
Guitar 2
e|--------------------------------------------------------------------------|
B|--------------------------------------------------------------------------|
G|--2--2--------------------5--5----7--7----2--2------------2--2------------|
D|-2--2-2---2--2----3---5--5--5-5--7--7-7--2--2-2---2--2---2--2-2-----------|
A|0--0---0-2--2-2--3---5--3--3---35--5---50--0---0-2--2-2-0--0---0----------|
E|--------0--0---01--13--3------------------------0--0---0------------------|


Guitar 1
e|-----------------------------|--------------------------------------------|
B|-----------------------------|-----------------9-12-12p10-10-8-10---------|
G|--------9-9-8----------------|-----------7h9-9----------------------------|
D|-9-10-10------9-10--9-10-7-9-|----7-9-10----------------------------------|
A|-----------------------------|11------------------------------------------|
E|-----------------------------|--------------------------------------------|
Guitar 2
e|--------------------------------------------------------------------------|
B|--------------------------------------------------------------------------|
G|---5---5----------------2---2----------2---2-------------------------2--2-|
D|--5---5-5----5-----6---2---2-2----2---2---2-2----2---2-----3----5---2--2--|
A|-3---3---3--5-----6-6-0---0---0--2-2-0---0---0--2---2-2---3----5---0--0---|
E|-----------3---3-4--------------0---0----------0---0---0-1---13--3--------|

Guitar 1
e|----------------------------------|
B|----------------------------------|
G|----------------------------------|
D|----------7-9-7h9p7---------------|
A|--7-9-10------------9--10--7-----6|
E|----------------------------------|
Guitar 2
e|----------------------------------|
B|----------------------------------|
G|----------------------------------|
D|----------------------------------|
A|----------------------------------|
E|--5-4-3--1----0----4-------5-----0|

Guitar 1
e|--------------------------------------------------------------------------|
B|---------------9-12-12p10-10-8h10p8---------------------------------------|
G|---------7h9-9----------------------9---9-7-7-10-9--------9-7-------------|
D|-7--9-10-------------------------------------------10--10------9---9h10--7|
A|--------------------------------------------------------------------------|
E|--------------------------------------------------------------------------|
Guitar 2
e|--------------------------------------------------------------------------|
B|--------------------------------------------------------------------------|
G|---2---2-----------2---4---5---5---7-------2---------------2--------------|
D|--2-2-2-2--2---2--2-2-4-4-5-5-5-5-7-7--2--2-2--5---2---2--2-2-------------|
A|-0---3----2-2-2-20---2---3---3---5----2-20----5-5-2-2-2-20---0------------|
E|---------0---3-----------------------0-------3---0---3--------------------|


Guitar 1
e|-----------------------------|
B|-----------------------------|
G|--------9-9-8----------------|
D|-9-10-10------9-10--9-10-7-9-|
A|-----------------------------|
E|-----------------------------|
Guitar 2
e|--------------------------------------------------------------------------|
B|--------------------------------------------------------------------------|
G|----5--5------------2--2--------------------------------------------------|
D|---5--5-5---5---6--2--2-2---2--2------------------------------------------|
A|--3--3---3-5---6-60--0---0-2--2-2-----------------------------------------|
E|----------3--34-----------0--0---0----------------------------------------|


Guitar 1
e|--------------------------------------------------------------------------|
B|---------------9-12-12p10-10-8h10p8---------------------------------------|
G|---------7h9-9----------------------9---9-7-7-10-9--------9-7-------------|
D|-7--9-10-------------------------------------------10--10------9---9h10--7|
A|--------------------------------------------------------------------------|
E|--------------------------------------------------------------------------|
Guitar 2
e|--------------------------------------------------------------------------|
B|--------------------------------------------------------------------------|
G|--2--2--------------------5--5----7--7----2--2------------2--2------------|
D|-2--2-2---2--2----3---5--5--5-5--7--7-7--2--2-2---2--2---2--2-2-----------|
A|0--0---0-2--2-2--3---5--3--3---35--5---50--0---0-2--2-2-0--0---0----------|
E|--------0--0---01--13--3------------------------0--0---0------------------|


Guitar 1
e|----------------------------------|
B|----------------------------------|
G|----------------------------------|
D|----------7-9-7h9p7---------------|
A|--7-9-10------------9--10--7-----6|
E|----------------------------------|
Guitar 2
e|----------------------------------|
B|----------------------------------|
G|----------------------------------|
D|----------------------------------|
A|----------------------------------|
E|--5-4-3--1----0----4-------5-----0|

END!!!
            

comments powered by Disqus
↑ Back to top | In Flames Tabs for Varmlandsvisan. Lyrics for acoustic guitar and electric guitar. Tablatures and chords are parodies/interpretations of the original songs. You may use it for private study, scholarship, research or language learning purposes only