» » »

In Flames, Hive Bass tabs (ver.1)

Artists:  A B C D E F G H I J K L M N O P Q R S T U V W X Y Z # 

Hive Bass tabs (ver.1)

In Flames Tabs
Rating:
0/5 (0 votes)
Hive lessons Tabs too difficult? Try these video lessons and learn fast
                Tune down

D#||-----|-------------------|------------------------|-------------------|
A#||-----|-------------------|------------------------|-------------------|
F ||-----|----------------2--|----2--2--3----3--3-----|----------------2--|
C ||--0--|-------------------|---------------------0--|-------------------|


                                                                       
-------------------------|-------------------|------------------------|
-------------------------|-------------------|------------------------|
----2--2--2--5--5--5-----|----------------2--|----2--2--3----3--3--2--|
----------------------0--|-------------------|------------------------|


                                                                  
-------------------|-------------------|-------------------------|
-------------------|-------------------|-------------------------|
----------------0--|-------------------|----------------------2--|
-------------------|----------------0--|----0--0--0--0--0--0-----|


                                                                             
------------------------|-------------------------|-------------------------|
------------------------|-------------------------|-------------------------|
----2--2--3----3--3-----|----------------------2--|----2--2--2--5--5--5-----|
---------------------0--|----0--0--0--0--0--0-----|----------------------0--|


                                                                             
-------------------------|------------------------|-------------------------|
-------------------------|------------------------|-------------------------|
----------------------2--|----2--2--3----3--3--2--|----2--2--2--2--2--2--0--|
----0--0--0--0--0--0-----|------------------------|-------------------------|


                                                                               
------------------------|--------------------------|--------------------------|
------------------------|--------------------------|--------------------------|
----0--0--0--0--0--0----|--------------------------|--------------------------|
------------------------|--0--0--0--0--0--0--0--0--|--3--3--3--3--3--3--3--3--|


                                                      
--------------------------|--------------------------|
--------------------------|--------------------------|
--2--2--2--2--2--2--2--2--|--3--3--3--0--0--0--0--0--|
--------------------------|--------------------------|


                                                                          
--------------------------|--------------------------|-------------------|
--------------------------|--------------------------|-------------------|
--------------------------|--------------------------|--5----------------|
--0--0--0--0--0--0--0--0--|--3--3--3--3--3--3--3--3--|-------------------|


                                                                          
-------------------|--------------------------|--------------------------|
-------------------|--------------------------|--------------------------|
-------------------|--------------------------|--------------------------|
--5----------------|--0--0--0--0--0--0--0--0--|--3--3--3--3--3--3--3--3--|


                                                      
--------------------------|--------------------------|
--------------------------|--------------------------|
--2--2--2--2--2--2--2--2--|--3--3--3--0--0--0--0--0--|
--------------------------|--------------------------|


                                                                          
--------------------------|--------------------------|-------------------|
--------------------------|--------------------------|-------------------|
--------------------------|--------------------------|--5----------------|
--0--0--0--0--0--0--0--0--|--3--3--3--3--3--3--3--3--|-------------------|


                                                                        
--------------------|-------------------------|------------------------|
--------------------|-------------------------|------------------------|
--------------------|----------------------2--|----2--2--3----3--3-----|
--5--------------0--|----0--0--0--0--0--0-----|---------------------0--|


                                                                              
-------------------------|-------------------------|-------------------------|
-------------------------|-------------------------|-------------------------|
----------------------2--|----2--2--2--5--5--5-----|----------------------2--|
----0--0--0--0--0--0-----|----------------------0--|----0--0--0--0--0--0-----|


                                                                            
------------------------|-------------------------|------------------------|
------------------------|-------------------------|------------------------|
----2--2--3----3--3--2--|----2--2--2--2--2--2--0--|----0--0--0--0--0--0----|
------------------------|-------------------------|------------------------|


                                                      
--------------------------|--------------------------|
--------------------------|--------------------------|
--------------------------|--------------------------|
--0--0--0--0--0--0--0--0--|--3--3--3--3--3--3--3--3--|


                                                      
--------------------------|--------------------------|
--------------------------|--------------------------|
--2--2--2--2--2--2--2--2--|--3--3--3--0--0--0--0--0--|
--------------------------|--------------------------|


                                                                          
--------------------------|--------------------------|-------------------|
--------------------------|--------------------------|-------------------|
--------------------------|--------------------------|--5----------------|
--0--0--0--0--0--0--0--0--|--3--3--3--3--3--3--3--3--|-------------------|


                                                                          
-------------------|--------------------------|--------------------------|
-------------------|--------------------------|--------------------------|
-------------------|--------------------------|--------------------------|
--5----------------|--0--0--0--0--0--0--0--0--|--3--3--3--3--3--3--3--3--|


                                                      
--------------------------|--------------------------|
--------------------------|--------------------------|
--2--2--2--2--2--2--2--2--|--3--3--3--0--0--0--0--0--|
--------------------------|--------------------------|


                                                                          
--------------------------|--------------------------|-------------------|
--------------------------|--------------------------|-------------------|
--------------------------|--------------------------|--5----------------|
--0--0--0--0--0--0--0--0--|--3--3--3--3--3--3--3--3--|-------------------|


                                                                          
-------------------|--------------------------|--------------------------|
-------------------|--------------------------|--------------------------|
-------------------|--0--0--0--0--0--0--0--0--|--------------------------|
--5----------------|--------------------------|--3--3--3--3--3--3--3--3--|


                                                      
--------------------------|--------------------------|
--0--0--0--0--0--0--0--0--|--------------------------|
--------------------------|--------------------------|
--------------------------|--1--1--1--3--3--3--3--3--|


                                                      
--------------------------|--------------------------|
--------------------------|--------------------------|
--0--0--0--0--0--0--0--0--|--------------------------|
--------------------------|--3--3--3--3--3--3--3--3--|


                                                            
--------------------------|--------------------------------|
--0--0--0--0--0--0--0--0--|---------------------------0----|
--------------------------|------------0----2----3---------|
--------------------------|--1----3------------------------|


                                                                         
--------------------------------|-------------------|-------------------|
---------------------------0----|-------------------|-------------------|
------------0----2----3---------|-------------------|-------------------|
--1----3------------------------|--0----------------|--1----------------|


                                                                   
-------------------|--------------------------|-------------------|
-------------------|--------------------------|-------------------|
--0----------------|--0--0--0--0--0--0--0--0--|-------------------|
-------------------|--------------------------|--0----------------|


                                                             
-------------------|---------------------|------------------|
-------------------|---------------------|------------------|
-------------------|------------------5--|------------------|
--1----------------|--3------------3-----|------------------|


                                                            
-------------------|-------------------|-------------------|
-------------------|-------------------|-------------------|
-------------------|-------------------|--0----------------|
--0----------------|--1----------------|-------------------|


                                                                   
--------------------------|-------------------|-------------------|
--------------------------|-------------------|-------------------|
--0--0--0--0--0--0--0--0--|-------------------|-------------------|
--------------------------|--0----------------|--1----------------|


                                                                    
---------------------|------------------|--------------------------|
---------------------|------------------|--------------------------|
------------------5--|------------------|--------------------------|
--3------------3-----|------------------|--0--0--0--0--0--0--0--0--|


                                                      
--------------------------|--------------------------|
--------------------------|--------------------------|
--------------------------|--2--2--2--2--2--2--2--2--|
--3--3--3--3--3--3--3--3--|--------------------------|


                                                      
--------------------------|--------------------------|
--------------------------|--------------------------|
--3--3--3--0--0--0--0--0--|--------------------------|
--------------------------|--0--0--0--0--0--0--0--0--|


                                                                   
--------------------------|-------------------|-------------------|
--------------------------|-------------------|-------------------|
--------------------------|--5----------------|-------------------|
--3--3--3--3--3--3--3--3--|-------------------|--5----------------|


                                                      
--------------------------|--------------------------|
--------------------------|--------------------------|
--------------------------|--------------------------|
--0--0--0--0--0--0--0--0--|--3--3--3--3--3--3--3--3--|


                                                      
--------------------------|--------------------------|
--------------------------|--------------------------|
--2--2--2--2--2--2--2--2--|--3--3--3--0--0--0--0--0--|
--------------------------|--------------------------|


                                                                          
--------------------------|--------------------------|-------------------|
--------------------------|--------------------------|-------------------|
--------------------------|--------------------------|--5----------------|
--0--0--0--0--0--0--0--0--|--3--3--3--3--3--3--3--3--|-------------------|


                                                                          
-------------------|--------------------------|--------------------------|
-------------------|--------------------------|--------------------------|
-------------------|--0--0--0--0--0--0--0--0--|--------------------------|
--5----------------|--------------------------|--3--3--3--3--3--3--3--3--|


                                                      
--------------------------|--------------------------|
--0--0--0--0--0--0--0--0--|--------------------------|
--------------------------|--------------------------|
--------------------------|--1--1--1--3--3--3--3--3--|


                                                      
--------------------------|--------------------------|
--------------------------|--------------------------|
--0--0--0--0--0--0--0--0--|--------------------------|
--------------------------|--3--3--3--3--3--3--3--3--|


                                                            
--------------------------|--------------------------------|
--0--0--0--0--0--0--0--0--|---------------------------0----|
--------------------------|------------0----2----3---------|
--------------------------|--1----3------------------------|


                                                                         
--------------------------------|-------------------|-------------------|
---------------------------0----|-------------------|-------------------|
------------0----2----3---------|-------------------|-------------------|
--1----3------------------------|--0----------------|--1----------------|


                                                                   
-------------------|--------------------------|-------------------|
-------------------|--------------------------|-------------------|
--0----------------|--0--0--0--0--0--0--0--0--|-------------------|
-------------------|--------------------------|--0----------------|


                                                             
-------------------|---------------------|------------------|
-------------------|---------------------|------------------|
-------------------|------------------5--|------------------|
--1----------------|--3------------3-----|------------------|


                                                            
-------------------|-------------------|-------------------|
-------------------|-------------------|-------------------|
-------------------|-------------------|--0----------------|
--0----------------|--1----------------|-------------------|


                                                                   
--------------------------|-------------------|-------------------|
--------------------------|-------------------|-------------------|
--0--0--0--0--0--0--0--0--|-------------------|-------------------|
--------------------------|--0----------------|--1----------------|


                                                                   
---------------------|------------------|-------------------------|
---------------------|------------------|-------------------------|
------------------5--|------------------|--7--7--7--4----4--4--4--|
--3------------3-----|------------------|-------------------------|


                                                                               
-------------------------|-------------------------|--------------------------|
-------------------------|-------------------------|--------------------------|
--5--5--5--2----2--2--1--|----1--1--1--1--1--1--2--|--2--2--2--2--2--2--2--2--|
-------------------------|-------------------------|--------------------------|


                                                                            
-------------------------|-------------------------|-----------------------|
-------------------------|-------------------------|-----------------------|
--7--7--7--4----4--4--4--|--5--5--5--2----2--2--3--|----3--3--5----7----5--|
-------------------------|-------------------------|-----------------------|


                                                                            
-----------------------|-------------------------|-------------------------|
----------2----4----4--|-------------------------|-------------------------|
----5--5---------------|--7--7--7--4----4--4--4--|--5--5--5--2----2--2--1--|
-----------------------|-------------------------|-------------------------|


                                                                               
-------------------------|--------------------------|-------------------------|
-------------------------|--------------------------|-------------------------|
----1--1--1--1--1--1--2--|--2--2--2--2--2--2--2--2--|--7--7--7--4----4--4--4--|
-------------------------|--------------------------|-------------------------|


                                                                          
-------------------------|-----------------------|-----------------------|
-------------------------|-----------------------|----------2----4----4--|
--5--5--5--2----2--2--3--|----3--3--5----7----5--|----5--5---------------|
-------------------------|-----------------------|-----------------------|


                                                                                
-------------------|-------------------|-------------------|-------------------|
-------------------|-------------------|-------------------|-------------------|
-------------------|--0----------------|--5----------------|--2----------------|
--0----------------|-------------------|-------------------|-------------------|


                                                            
-------------------|-------------------|-------------------|
-------------------|-------------------|-------------------|
--3----------------|-------------------|--2----------------|
-------------------|--3----------------|-------------------|


                                                                         
--------------------------|----------------------|----------------------|
--------------------------|----------------------|----------------------|
--2--2--2--2--2--2--2--2--|----------------------|--0------0----0--0----|
--------------------------|--0------0----0--0----|----------------------|


                                                                     
----------------------|----------------------|----------------------|
--0------0----0--0----|----------------------|----------------------|
----------------------|--2------2----2--2----|--3------3----3--3----|
----------------------|----------------------|----------------------|


                                                                         
----------------------|----------------------|--------------------------|
----------------------|----------------------|--------------------------|
----------------------|--2------2----2--2----|--2--2--2--2--2--2--2--2--|
--3------3----3--3----|----------------------|--------------------------|


                                                      
--------------------------|--------------------------|
--------------------------|--------------------------|
--------------------------|--0--0--0--0--0--0--0--0--|
--0--0--0--0--0--0--0--0--|--------------------------|


                                                      
--------------------------|--------------------------|
--0--0--0--0--0--0--0--0--|--------------------------|
--------------------------|--2--2--2--2--2--2--2--2--|
--------------------------|--------------------------|


                                                      
--------------------------|--------------------------|
--------------------------|--------------------------|
--3--3--3--3--3--3--3--3--|--------------------------|
--------------------------|--3--3--3--3--3--3--3--3--|


                                                                                
--------------------------|--------------------------|-------------------------|
--------------------------|--------------------------|-------------------------|
--2--2--2--2--2--2--2--2--|--2--2--2--2--2--2--2-----|----------------------2--|
--------------------------|-----------------------0--|----0--0--0--0--0--0-----|


                                                                             
------------------------|-------------------------|-------------------------|
------------------------|-------------------------|-------------------------|
----2--2--3----3--3-----|----------------------2--|----2--2--2--5--5--5-----|
---------------------0--|----0--0--0--0--0--0-----|----------------------0--|


                                                                             
-------------------------|------------------------|-------------------------|
-------------------------|------------------------|-------------------------|
----------------------2--|----2--2--3----3--3--2--|----2--2--2--2--2--2--0--|
----0--0--0--0--0--0-----|------------------------|-------------------------|


                                                                             
-------------------------|-------------------------|------------------------|
-------------------------|-------------------------|------------------------|
----0--0--0--0--0--0-----|----------------------2--|----2--2--3----3--3-----|
----------------------0--|----0--0--0--0--0--0-----|---------------------0--|


                                                                              
-------------------------|-------------------------|-------------------------|
-------------------------|-------------------------|-------------------------|
----------------------2--|----2--2--2--5--5--5-----|----------------------2--|
----0--0--0--0--0--0-----|----------------------0--|----0--0--0--0--0--0-----|


                                                                             
------------------------|-------------------------|-------------------------|
------------------------|-------------------------|-------------------------|
----2--2--3----3--3--2--|----2--2--2--2--2--2--0--|----0--0--0--0--0--0-----|
------------------------|-------------------------|----------------------0--|


        
------||
------||
------||
------||
            
Submit corrections

comments powered by Disqus
↑ Back to top | In Flames Bass for Hive. Lyrics for acoustic guitar and electric guitar. Tablatures and chords are parodies/interpretations of the original songs. You may use it for private study, scholarship, research or language learning purposes only