>
 >
Surburban Me

Surburban Me Guitar Tabs

In Flames - Surburban Me chords, tabs, tablatures, lyrics

Guitar lessons | Add/correct | Request | Top 50 tabs Artists:  A B C D E F G H I J K L M N O P Q R S T U V W X Y Z 0-9

Surburban Me Guitar Tabs – In Flames

CD, Sheet music, Poster

Do you like Surburban Me? Share with your friends now
Tabs
Alright.. I can only get the main parts.. Pretty simple... EMail me if ya know parts Im missing and if ya can play CLAYMAN! I can't find that one!

Guitar 1
|--------------------------------------------------------------------|
|--------------------------------------------------------------------|
|----2----2--2---2---2--2/4---4----4----4---4-----9----9-7-----------|
|----2----2--2h3-3---3--3/5-5-5-55-5-55-5-5-5-55-10---10-9-----------| 
|-00---00---0---0--00--0----.---..---..---.---..---------------------|
|-..---..---.---.--..--.---------------------------------------------|

Guitar 1
|--------------------------------------------------------------------|
|-------------------------0--0---------------------------------------|
|-2---2----2--2---2---2---0--0--4------------------------------------|
|-3p2-2----2--2h3-3---3---------5------------------------------------| 
|----0--00---0---0--00--0--------------------------------------------|
|----.--..---.---.--..--.--------------------------------------------|

While This Guitar 2 doesn't play.. I think..

Guitar 1/2
|-----------------------------|
|-----------------------------|
|-2---------------------------| 
|-2---------------------------|
|-0---------------------------|
|-----------------------------|
|
|-----------------------------|
|---/10-12-13-12h13p12-10-13~-|
|-----------------------------| 
|-----------------------------| 
|-----------------------------|
|-----------------------------|



|---------------------------------------------------------------------|
|---------------------------------------------------------------------|
|-2--22-2--2--22-2----------------------------------------------------|
|-2--22-2--3--33-3--5--55-5--0----------------------------------------|
|-0--00-0--0--00-0--5--55-5--0----------------(0)---------------------|
|-------------------5--55-5--0----------------(0)---------------------|


|---------------------------------------------------------------------|
|-------------------------------------5---3---------------------------|
|-2--22-2--2--22-2--------------------5---4---------------------------|
|-2--22-2--3--33-3--5--55-5--0----------------------------------------|
|-0--00-0--0--00-0--5--55-5--0------0---0-----------------------------|
|-------------------5--55-5--0------.---.-----------------------------|

Solo 1 theres one note in there that just doesn't sound RIGHT!!! I can't find it!
|-------------------------------------------------------15-17-17fb---|
|-13-12-15fb--15fb+r-10-15~-13-12-13-12h13p12--------/19-------------|
|--------------------------------------------12-14~------------------|
|--------------------------------------------------------------------|
|--------------------------------------------------------------------|
|--------------------------------------------------------------------|

|--+r--/15-17-17fb-+r-17fb+*rfb~~------------------------------------|
|------------------------------------15-13-12-13-12h13p12------------|
|--------------------------------------------------------12-14~------|
|--------------------------------------------------------------------|
|--------------------------------------------------------------------|
|--------------------------------------------------------------------|
           
Both Guitars
|---0---------0h1-0--------0-----------------------------------------|
|-----------3-------3~-----------------------------------------------|
|-2-------2--------------2-------------------------------------------| 
|--------------------------------------------------------------------|
|--------------------------------------------------------------------|
|--------------------------------------------------------------------|

Both Guitars... (I think..)
|--------------------------------------------------------------------|
|--------------------------------------------------------------------|
|--------------5-5---------------------------------------------------| 
|--3-3---0-0---5-5---5----(5)----------------------------------------|
|--3-3---0-0---3-3---5----(5)----------------------------------------|
|--3-3---0-0---------5----(5)----------------------------------------|

This I know its the first guitar!!
|---0---------0h1-0-------0------------------------------------------|
|-----------3-------3~-----------------------------------------------|
|-2-------2-------------2--------------------------------------------| 
|--------------------------------------------------------------------|
|--------------------------------------------------------------------|
|--------------------------------------------------------------------|


second Guitar                                                                    
|--------------------------------------------------------------------|
|---1-------0-1-3-1-0~----1------------------------------------------|
|-2-------X-------------2--------------------------------------------|
|--------------------------------------------------------------------|
|--------------------------------------------------------------------|
|--------------------------------------------------------------------|




|--------------------------------------------------------------------|
|--------------------------------------------------------------------|
|--------------------------------------------------------------------|
|-----5---4---5----------5---4------5---4---5------------------------|
|-~-----------------------------~------------------5-5---------------|
|-2-0---0---0---0~-0-0-0---0----2-0---0---0----4-4-5-5---------------|
|   .   .   .      . . .   .      .   .   .
|--------------------------------------------------------------------|
|--------------------------------------------------------------------|
|--------------------------------------------------------------------|
|-----9---7---9----------9---7------9---7---9------------------------|
|-~-----------------------------~------------------5-5---------------|
|-2-0---0---0---0~-0-0-0---0----2-0---0---0----4-4-5-5---------------|
    .   .   .      . . .   .      .   .   .

|--------------------------------------------------------------------|
|--------------------------------------------------------------------|
|--------------------------------------------------------------------|
|-----5---4---5----------5---4------5---4---5------------------------|
|-~-----------------------------~------------------5-5--3-3-5-5------|
|-2-0---0---0---0~-0-0-0---0----2-0---0---0----4-4-5-5--3-3-5-5------|
|   .   .   .      . . .   .      .   .   .
|--------------------------------------------------------------------|
|--------------------------------------------------------------------|
|--------------------------------------------------------------------|
|-----9---7---9----------9---7------9---7---9------------------------|
|-~-----------------------------~------------------5-5--3-3-5-5------|
|-2-0---0---0---0~-0-0-0---0----2-0---0---0----4-4-5-5--3-3-5-5------|
    .   .   .      . . .   .      .   .   .


|--------------------------------------------------------------------|
|--------------------------------------------------------------------|
|-/5~---(5)----5-4h5p4--------/5-4h5p4---------------/4-5-7~---------|
|----------------------5-5~------------5-7~----5h7~------------------|
|--------------------------------------------------------------------|
|--------------------------------------------------------------------|

First Guitar
|---0---------0h1-0-------0------------------------------------------|
|-----------3-------3~-----------------------------------------------|
|-2-------2-------------2--------------------------------------------| 
|--------------------------------------------------------------------|
|--------------------------------------------------------------------|
|--------------------------------------------------------------------|

Second guitar

|-------------------------0------------------------------------------|
|---1-------0-1-3-1-0~-----------------------------------------------|
|-2-------X-------------2--------------------------------------------| 
|--------------------------------------------------------------------|
|--------------------------------------------------------------------|
|--------------------------------------------------------------------|


Both guitars
|--------------------------------------------------------------------|
|--------------------------------------------------------------------|
|-----------------------------------------------------------5-5------| 
|-7-------------------------------------------------3-3-0-0-5-5-5----|
|-7--55555555-3333333333333333-77777777-55555555----3-3-0-0-3-3-5----|
|-7--55555555-3333333333333333-77777777-55555555----3-3-0-0-----5----|



|--------------------------------------------------------------------|
|--------------------------------------------------------------------|
|-------------5-----------------------------------5------------------|
|--8----0-----5------------------8----------5-----5------------------|
|--8----0-----3--------0-2-3-5---8----8-----5-----3------------------|
|--8----0----------3-5-----------8----7-----5------------------------|
|
|--------------------------------------------------------------------|
|--------------------------------------------------------------------|
|-------------5-----------------------------------5------------------|
|--8----0-----5------------------8----------5-----5------------------|
|--8----0-----3------------0-2---8----8-----5-----3------------------|
|--8----0----------0-2-3-5-------8----7-----5------------------------|

                                                 ? ? ? Right here? ? ?
|--------------------------------------------------------------------|
|--------------------------------------------------------------------|
|-------------5---------------------------5--------------------------|
|--8----0-----5-----------------8----0----5---------------7-5-----5--|
|--8----0-----3--------0-2-3-5--8----0----3-------0-2-3-5-----8-7---7|
|--8----0----------3-5----------8----0--------3-5--------------------|
|
|--------------------------------------------------------------------|
|--------------------------------------------------------------------|
|-------------5---------------------------5--------------------------|
|--8----0-----5-----------------8----0----5--------------------------|
|--8----0-----3------------0-2--8----0----3-----------0-2-8-7-5-3-7-3|
|--8----0----------0-2-3-5------8----0--------0-2-3-5----------------|



|--------------------------------------------------------------------|
|--------------------------------------------------------------------|
|--/5-5-5--/5-4-/4------------------/5-5-5-/5-4--/5-/7-7~------------|
|------------------5-5~-------(5)------------------------------------|
|--------------------------------------------------------------------|
|--------------------------------------------------------------------|

Sorry You can't end the song.. I don't have the ending





Comments


Popular In Flames tabs & chords
Jotun 5 Bass Tabs
The Jester Race 1 Bass Tabs
The Mirrors Truth Bass Tabs
Worlds Within The Margin Bass Tabs
Another Day In Quicksand 3 Tabs
Borders And Shading Tabs
Insipid 2000 Tabs
Vacuum Tabs
X-mas Song Tabs
Trigger Ukulele


Song lyrics



↑ Back to top | Tablatures and chords are parodies/interpretations of the original songs. You may use it for private study, scholarship, research or language learning purposes only
© 2014 AZChords.com Contact us | Privacy policy | DMCA | Add/correct tabs | Request tabs | Top 50 tabs