>
 >
Stand Ablaze 1

Stand Ablaze 1 Bass Tabs

In Flames - Stand Ablaze 1 chords, tabs, tablatures, lyrics

Guitar lessons | Add/correct | Request | Top 50 tabs Artists:  A B C D E F G H I J K L M N O P Q R S T U V W X Y Z 0-9

Stand Ablaze 1 Bass Tabs – In Flames

CD, Sheet music, Poster

Do you like Stand Ablaze 1? Share with your friends now
Bass TabsBass Tabs v2Tabs
G||----------------------------------|----------------------------------|
D||----------------------------------|----------------------------------|
A||----------------------------------|----------------------------------|
E||----------------------------------|----------------------------------|
                                                                      


                                                     
|---------------------------------------------------|
|*--5--5--5--5--------------3--3--3--3--------------|
|*--------------6--6--6--6--------------5--5--5--5--|
|---------------------------------------------------|


                                                     
---------------------------------------------------||
--------------------------------------------------*||
--6--6--6--6--6--6--6--6--5--5--5--5--5--5--5--5--*||
---------------------------------------------------||


                                                             
---------------------------------------------------7--------|
--5----5----5----5----5----5----5----5----8-----------------|
------------------------------------------------------------|
------------------------------------------------------------|


                                                               
--------------------------------------------------------------|
--------------------------------------------------------------|
--8----8----8----8----8----8----8----8----8----8----5---------|
---------------------------------------------------------8----|


                                                             
---------------------------------------------------7--------|
--5----5----5----5----5----5----5----5----8-----------------|
------------------------------------------------------------|
------------------------------------------------------------|


                                                               
--5-----------------------------------------------------------|
--------------------------------------------------------------|
-------8----8----8----8----8----8----8----8----8----8----8----|
--------------------------------------------------------------|


                                                                             
|---------------------------------------------------------------------------|
|*--5--5--5--5--5--5--5--5--5--5--5--5--5--5--5--5--5--5--5--5--5/-7--7--7--|
|*--------------------------------------------------------------------------|
|---------------------------------------------------------------------------|


                                                                             
--3--3--3--3--3--3--3--3--3--3--3--3--3--3--3--3--3--3--3--3--3--3--3--3--*||


                                                    
---------------------------------------------------|
*--5--5--5-----------------3--3--3-----------------|
*-----------6--6--6--6--6-----------5--5--5--5--5--|
---------------------------------------------------|


                                                     
---------------------------------------------------||
--------------------------------------------------*||
--6--6--6--3--3--3--3--3--5--5--5--5--6--6--8--8--*||
---------------------------------------------------||


                                                                            
*--5--5--5--5--5--5--5--5--5--5--5--5--5--5--5--5--5--5--5--5--5/-7--7--7--|
*--------------------------------------------------------------------------|


                                                                             
--3--3--3--3--3--3--3--3--3--3--3--3--3--3--3--3--3--3--3--3--3--3--3--3--*||


                                                    
---------------------------------------------------|
*--5--5--5-----------------3--3--3-----------------|
*-----------6--6--6--6--6-----------5--5--5--5--5--|
---------------------------------------------------|


                                                     
---------------------------------------------------||
--------------------------------------------------*||
--6--6--6--3--3--3--3--3--5--5--5--5--6--6--8--8--*||
---------------------------------------------------||


                                                                              
-------------------------------------|---------------------------------------|
-------------------------------------|-----------------------------3----5----|
---------------5---------------------|-------------------5----6--------------|
--3-----------------3----------------|--3------------------------------------|


                                                   
--------------------------------------------------|
-----5--5--5--5-----------------------------------|
--5--------------5--5--5--5--3--3--3--3-----------|
-----------------------------------------1/-10----|


                                              
---------------------------------------------|
--5--5--5--5----------------------------5----|
--------------5--5--5--5--6------8-----------|
---------------------------------------------|


                                                     
|---------------------------------------------------|
|*-----8--8--8--8--8--8-----------------------------|
|*--5--------------------8--8--8--6--6--6--6--6--6--|
|---------------------------------------------------|


                                                     
---------------------------------------------------||
-----------8--8--8--8--8--8--------------------8--*||
--------8--------------------8--8--8--9----11-----*||
--4--4---------------------------------------------||


                                                                           
--5--5--5--5--5--5--5--5--5--5--5--5--5--5--5--5--5--5--5--5--5/-7--7--7--|


                                                                           
--3--3--3--3--3--3--3--3--3--3--3--3--3--3--3--3--3--3--3--3--3--3--3--3--|


                                                                     
|----------------------|---------------------|---------------------||
|*---------------------|---------------------|--------------------*||
|*--5----3-------------|-----------5----3----|-----------5--------*||
|-----------------3----|--6------------------|--5------------------||


                                                                    
*------------------------------------------------------------------|
*--5-5-5-5-5-5-5-5-----------------3-3-3-3-3-3-3-3-----------------|
-------------------3-3-3-3-3-3-3-3-----------------1-1-1-1-1-1-1-1-|


                                                                        
-----------------------------------------------||----------------------|
----------------------------------------------*||*---------------------|
--1-1-1-1-1-1-1-1-3-3-3-3-3-3-3-3-5--3--5--3--*||*--5----3-------------|
-----------------------------------------------||-----------------3----|


                                                                  
---------------------|---------------------||--------------------|
---------------------|--------------------*||--------------------|
-----------5----3----|-----------5--------*||--5----5------------|
--6------------------|--5------------------||--------------------|


                                                              
--------------------|-------------------|--------------------|
--------------------|-------------------|--------------------|
--5----5------------|-------------------|--1--------3--------|
--------------------|--3----------------|--------------------|


                                                              
--------------------|--------------------|-------------------|
--------------------|--------------------|-------------------|
--5----5------------|--5----5------------|-------------------|
--------------------|--------------------|--3----------------|


                                                               
--------------------|--------------------|--------------------|
--------------------|--------------------|--------------------|
--1--------3--------|--5----5------------|--5----5------------|
--------------------|--------------------|--------------------|


                                                              
-------------------|--------------------|--------------------|
-------------------|--------------------|--------------------|
-------------------|--1--------3--------|--5----5------------|
--3----------------|--------------------|--------------------|


                                                              
--------------------|-------------------|--------------------|
--------------------|-------------------|--------------------|
--5----5------------|-------------------|--1--------3--------|
--------------------|--3----------------|--------------------|


                                                                     
|-------------------------------------------------------------------|
|*------------------------------------------------------------------|
|*--5-5-5-5-5-5-5-5-----------------3-3-3-3-3-3-3-3-----------------|
|-------------------3-3-3-3-3-3-3-3-----------------1-1-1-1-1-1-1-1-|


                                                                       
-----------------------------------------------||---------------------|
----------------------------------------------*||---------------------|
--1-1-1-1-1-1-1-1-3-3-3-3-3-3-3-3-5--3--5--3--*||--5----3-------------|
-----------------------------------------------||----------------3----|


                                                                 
---------------------|--------------------|---------------------|
---------------------|--------------------|---------------------|
-----------5----3----|-----------5--------|--5----3-------------|
--6------------------|--5-----------------|----------------3----|


                                            
---------------------|--------------------||
---------------------|--------------------||
-----------5----3----|-----------5--------||
--6------------------|--5-----------------||





Comments


Popular In Flames tabs & chords
Artefacts Of The Black Rain Bass Tabs
Dead Eternity 2 Bass Tabs
Dialogue With The Stars Bass Tabs
Jesters Race Bass Tabs
Satellites And Astronauts Bass Tabs
Bullet Ride 2 Tabs
Dialouge With The Stars Tabs
Episode 666 Tabs
Reroute To Remain Tabs
Reroute To Remain Intro Tabs


Song lyrics



↑ Back to top | Tablatures and chords are parodies/interpretations of the original songs. You may use it for private study, scholarship, research or language learning purposes only
© 2014 AZChords.com Contact us | Privacy policy | DMCA | Add/correct tabs | Request tabs | Top 50 tabs