» » »

Satelites And Astronauts Bass tabs (ver.1)

Artists:  A B C D E F G H I J K L M N O P Q R S T U V W X Y Z # 

Satelites And Astronauts Bass tabs (ver.1)

In Flames
Rating:
0/5 (0 votes)

Hard to play? Try these video lessons and learn fast.
                Tune Bass to (C,F,Bb,Eb)

Riff A (Intro and main "mellow part" Riff)
|--------------------------------------------------------------|
|--------------------------------------------------------------|
|--------------7--5--------------------------------------------|
|--0--2--3--5--------------------------------------------------|

NOTE : ( Technically, the bass doesnt come in until the heavy riff,   )
       ( but I think it sounds ok if the bass comes in on the second  )
       ( time of Riff A, with just the guitars.                       )

Riff B.1 (Heavy part, just keep hitting the note in time with the drums)
|--------------------------------------------------------------|
|--------------------------------------------------------------|
|--3-3-3-3-3-3-3-3-3-3-3-3-------------------------------------|
|--------------------------------------------------------------|

Riff B.2
|---------------------------------------------7~---------------|
|--------------------------------------------------------------|
|--------------7~-------------7~--5--5--5--5-------------------|
|--0--0--0--0------0--0--0--0----------------------------------|

Riff B.2 (continued)
|--------------------------------------------------------------|
|--------------------------------------------------------------|
|--2--2--2--2---3--3--3--3--3(3--------------------------------|
|--------------------------------------------------------------|

Riff C.1 ("buy me a trip to the moon....")
|--------------------------------------------------------------|
|--------------------------------------------------------------|
|--7-7-7-7-7-7-6-6-6-6-6-6-5-5-5-5-5-5/12-12-12-12-12-12-------|
|--------------------------------------------------------------|

Riff C.2
|--------------------------------------------------------------|
|--------------------------------------------------------------|
|--3--3--3--3--2--2--2--2--0-----------------------------------|
|--------------------------------------------------------------|

Riff D (Neat little bass fill)
|--------------------------------------------------------------|
|--7--5--------------------------------------------------------|
|--------9--7--------------------------------------------------|
|--------------------------------------------------------------|
            
Hard to play? Try these video lessons and learn fast. | Correct




comments powered by Disqus
↑ Back to top | Tablatures and chords are parodies/interpretations of the original songs. You may use it for private study, scholarship, research or language learning purposes only