» » »

Only For The Weak Tabs (ver.2)

Artists:  A B C D E F G H I J K L M N O P Q R S T U V W X Y Z # 

Only For The Weak Tabs (ver.2)

In Flames
Rating:
0/5 (0 votes)

Hard to play? Try these video lessons and learn fast.
                This is a fun and hard to play solo that took me 
Forever to get by ear

Tuning- C, F, A#, D#, G, C

/-slide up		h-hammer
\-slide down		p-pull off
~-Vibrato
^-Bend
()-Tremlo

-|---------------------------------------------------------------------------------
-|-/16-----------------------13--14-13h14p13---------/16---------------------------
-|-----15-13-17-13-11-13~-13---13------------13-11~-----15-13-17-13-11-13-11h12p11-
-|---------------------------------------------------------------------------------
-|---------------------------------------------------------------------------------
-|---------------------------------------------------------------------------------

-|-----------------------------------------------------------------16-18-18p16------
-|-------/16-----------------------------13--14-13h14p13-------/16------------16h19-
-|-----------15-13-17-13h15p13-11-13~-13---13------------13-11~---------------------
-|-11-13~---------------------------------------------------------------------------
-|----------------------------------------------------------------------------------
-|----------------------------------------------------------------------------------

-|-16h18-19p17------17h19-20p18-----(18)(17)(15)----(17)(15)(14)----14-----14-18--16
-|------------17h20------------18-21------------(15)------------(14)------------16--
-|--------------------------------------------------------------------15-16---------
-|----------------------------------------------------------------------------------
-|----------------------------------------------------------------------------------
-|----------------------------------------------------------------------------------

-|-19--16-21---18-16h18p16-14---14-----14------------------14-----14-18--16-19--16--
-|---16-----16---------------14-----------15-13------------------------16-----16----
-|--------------------------------15-16--------15~-13-11-----15-16------------------
-|------------------------------------------------------11~-------------------------
-|----------------------------------------------------------------------------------
-|----------------------------------------------------------------------------------

-|-21--18-16h18p16-14--14-----14-18---16-/19^-17-16-/20^-|
-|---16--------------14-------------16-------------------|
-|-----------------------15-16---------------------------|
-|-------------------------------------------------------|
-|-------------------------------------------------------|
-|-------------------------------------------------------|
            
Hard to play? Try these video lessons and learn fast. | Correct




comments powered by Disqus
↑ Back to top | Tablatures and chords are parodies/interpretations of the original songs. You may use it for private study, scholarship, research or language learning purposes only