» » »

Only For The Weak Bass tabs (ver.1)

Artists:  A B C D E F G H I J K L M N O P Q R S T U V W X Y Z # 

Only For The Weak Bass tabs (ver.1)

In Flames
Rating:
0/5 (0 votes)

Hard to play? Try these video lessons and learn fast.
                
Tuning: C (tune every string down two steps from standard tuning)

  .  =  staccato note
  ~  =  let note ring

Intro/Chorus I (0:00)
|-----------------------------------------------------------------|
|-----------------------------------------------------------------|
|-----------------3-3-3-3-5-5-5-5-------------------------5-5-5-5-|
|-0-0-0-0-5-5-5-5-----------------0-0-0-0-5-5-5-5-3-3-3-3---------| x2 (End with a high C the last time)

Pre-Verse I (0:21)
|-------------------------------------|
|-------------------------------------|
|-------------------------------------|
|-0-0-0-0-0-0-000---0-0-0-0-0-0-000---| x2

Verse I (0:30)
|-----------------------------------------------------------------|
|-----------------------------------------------------------------|
|-------------------------------------------------2-2-2-2-2-2-2-2-|
|-0-0-0-0-0-0-0-0-3-3-3-3-3-3-3-3-0-0-0-0-0-0-0-0-----------------| x2

Pre-Verse II (0:48)
|------------------------------------|
|------------------------------------|
|-----------------2-2-2-2--333--555--|
|-0-0-0-0-3-3-3-3--------------------| x2
			   ...  ...

Verse II (0:57)
|---------------------------------|
|--------------------------------:|
|-3~---------------5~------------:|
|------0~----3~-------------------| x4

Chorus I x2 (1:16)
Verse I x2 (1:36)
Pre-Verse II x2 (1:55)
Verse II x4 (2:04)
Chorus I x4 (2:22)

Solo (2:58)
|-------------------------------------------------------------------|
|-------------------------------------------------------------------|
|-------------------------------------------------2-2-2-2--333--555-|
|-0-0-0-0-0-0-0-0-3-3-3-3-3-3-3-3-0-0-0-0-0-0-0-0-------------------| x2
							   ...  ...

Verse II x4 (3:16)

(3:35)
|-----------------|
|-Some-Special-FX-|
|------(REST)-----|
|-----------------|

Chorus II x4 (3:40)
|-----------------------------------------------------------------|
|-----------------------------------------------------------------|
|-----------------5-5-5-5-7-7-7-7---------------------------------|
|-2-2-2-2-7-7-7-7-----------------2-2-2-2-7-7-7-7-5-5-5-5-0-0-0-0-| x8 (or more)

After this last riff, the song continues and finally fades out. 
Play it 8 times (I think) and then start playing softer, thus fading out.
Or else, you (and your band?) can come up with your own personal ending.
            
Hard to play? Try these video lessons and learn fast. | Correct




comments powered by Disqus
↑ Back to top | Tablatures and chords are parodies/interpretations of the original songs. You may use it for private study, scholarship, research or language learning purposes only