» » »

In Flames, Moonshield Bass tabs (ver.1)

Artists:  A B C D E F G H I J K L M N O P Q R S T U V W X Y Z # 

Moonshield Bass tabs (ver.1)

In Flames Tabs
 Rating:
4/5 (4 votes)
Moonshield lessons Tabs too difficult? Try these video lessons and learn fast
                Artist - In Flames
Song - Moonshield
Album - The Jester Race


(0:16)
G|------ -- --------- -- -----------------|
D|------ -- --------- -- -----------------|  x 4
A|8---h10h11---8---h10h11---6-------------|
C|------ -- --------- -- -----------------|

(0:32)
G|--------------------------------------------------------|
D|6-------------6-------------6-------------8------3------|  x 2
A|-------3-------------3-------------3--------------------|
C|--------------------------------------------------------|

(0:49)
G|-----------------------------------------|
D|-----------------------------------------|  x 6
A|-----------------------------------------|
C|5---8--8--5---8--8--0--0--0--3-3-3-3-3-3-|

(1:12) Singing Starts
G|-----------------------------------------|
D|-----------------------------------------|  x 4
A|-----------------------------------------|
C|5---8-----5---8-----0--0--0--3-3-3-3-3-3-|

(1:28)
G|------------------------------------------- ---------------------|
D|------------------------------------------- ---------------------|  x 2
A|-------3-------------3-------------3------- ---------------------|
C|8---\---------8---\---------8---\---------10---\--(3)--/-(5)h5---|

(1:44)
G|- ------- ------- -----|
D|- ------- ------- -----|
A|- ------- ------- -----|
C|11b^----10------11b^---|

(1:47)
G|-----------------------------------------|
D|-----------------------------------------|  x 4
A|-----------------------------------------|
C|5---8-----5---8-----0--0--0--3-3-3-3-3-3-|

(2:03)
G|--------------------|
D|--------------------|  x 4
A|1----3----4----6---\|
C|--------------------|

(2:18)
G|--------- ---- ---- ---- ----------------- --- ------ ---- --- -- ------|
D|--------- ---- ---- ---- ----------------- --- ------ ---- --- -- ------|  x 2
A|--------- ---- ---- ---- ----------------- --- ------ ---- --- -- ------|
C|8---8---10---10---11---11------8--8--x-x-10--10--x--11---11--11-11------|

(2:34)
G|-----------------------------------------|
D|-----------------------------------------|  x 4
A|-----------------------------------------|
C|5---8-----5---8-----0--0--0--3-3-3-3-3-3-|

(2:50)
G|-------------------------------------------------------------------------------------------|
D|-------------------------------------------------------------------------------------------|
A|-------------------------1-----------------------------------------------------------8/11--|
C|5----5----5----5----3---------8--------5--3--5----5----5----5----5--3--1--3----3--5--------|

(3:06)
G|-------------------------------------------------------------------------------------------|
D|-------------------------------------------------------------------------------------------|
A|-------------------------1-----------------------------------------------------------------|
C|5----5----5----5----3---------8--------0--3--5----5----5----5----5--3--1--3----3--5--------|

(3:22)
G|--------------------------------------------------------------------------------------------|
D|----------------------------------------------------------------------------------------- --|
A|-------------------------1------------------------------------------------------------8/11--|
C|5----5----5----5----3---------8--------0--3--5----5----5----5----5--3--1--3----3--5---------|

(3:38)
G|-------------------------------------------------------------------------------------------|
D|-------------------------------------------------------------------------------------------|
A|-------------------------1-----------------------------------------------------------------|
C|5----5----5----5----3---------8--------5--0--5----5----5----5----5--3--1--3----3--5--------|

(3:53)
G|--------- ---- ---- ---- ----------------- --- ------ ---- --- -- ------|
D|--------- ---- ---- ---- ----------------- --- ------ ---- --- -- ------|  
A|--------- ---- ---- ---- ----------------- --- ------ ---- --- -- ------|
C|8---8---10---10---11---11------8--8--x-x-10--10--x--11---11--11-11------|

(4:01)
G|--------- ---- ---- ---- ----------------- --- ------ --------|
D|--------- ---- ---- ---- ----------------- --- ------ --------| 
A|--------- ---- ---- ---- ---- --- -------- ---------- --------|
C|8---8---10---10---11---11---13---13------13-\-8--8--10--8-----|

(4:08) HIGH
G|-----------------------------------------|
D|-----------------------------------------|  x 4
A|--------------------3--3--3--6-6-6-6-6-6-|
C|5---8-----5---8--------------------------|

(4:24)
G|--------------------------------------------------------|
D|6-------------6-------------6-------------8------3------|  x 2
A|-------3-------------3-------------3--------------------|
C|--------------------------------------------------------|

(4:40)
G|- ------- ------- ------- ------ ------- ------- --------------|
D|- ------- ------- ------- ------ ------- ------- --------------|
A|- ------- ------- ------- ------ ------- ------- --------------|
C|11b^----10------11b^----10-----11b^----10------11b^----5-------|
            
Submit corrections

comments powered by Disqus
↑ Back to top | In Flames Bass for Moonshield. Lyrics for acoustic guitar and electric guitar. Tablatures and chords are parodies/interpretations of the original songs. You may use it for private study, scholarship, research or language learning purposes only