>
 >
Moonsheild

Moonsheild Guitar Tabs

In Flames - Moonsheild chords, tabs, tablatures, lyrics

Guitar lessons | Add/correct | Request | Top 50 tabs Artists:  A B C D E F G H I J K L M N O P Q R S T U V W X Y Z 0-9

Moonsheild Guitar Tabs – In Flames

CD, Sheet music, Poster

Do you like Moonsheild? Share with your friends now
Tabs
PROPS GO TO: Dex

Even though In Flames plays in C this song can be played in E because they dont go too 
low in this song

Listen to song for correct order and timing

Intro

Guitar 1 riff 1
-|-------------------------|
-|-------------------------|
-|-------------------------|
-|-6-6-6-6-8-6-5-5-5-5-3-5-|(played 8x)
-|--8-8-8-8-8---6-6-6-6-6--|
-|-------------------------|
Guitar 2 ( doesnt play till after 4th measure )
-|-------------------------|
-|-------------------------|
-|-------------------------|
-|-7-7-7-7-9-7-6-6-6-6-4-6-|(played 4x along w/Guitar 1)
-|--9-9-9-9-9---7-7-7-7-7--|
-|-------------------------|
Guitar 1 riff 2						only played after 1st time
-|-----------------------------------------------------|-----|
-|-----------------------------------------------------|-----|
-|-----------------------------------8-----------------|-----|
-|-6-5-3-------3-/8-6~-----6-5-3-------6-6p5-----------|-----|(played 2x)
-|-------6-3-1---------6h8-------6-3---------8-6-6h8-8-|-6h8-|
-|-----------------------------------------------------|-----|
Guitar 2
-|---------------|
-|---------------|
-|---------------|
-|-6-5-3---5-3---|
-|-------3-----1-|
-|---------------|

Pre-Verse/Verse

Guitar 1 riff 1
-|-----------------------------|
-|-----------------------------|
-|---------------5-5555-8-8888-|
-|-3-/666-3-/666-5-5555-8-8888-|(played 6x till verse then 4x during verse)
-|-3-/666-3-/666-3-3333-6-6666-|
-|-1/-444-1-/444---------------|
Guitar 2 (comes in after 2nd measure and plays through 2x) riff 1
-|-------------------------------------------------------------------------|
-|-------------------------------------------------------------------------|
-|-----------------------------------------------------------------8-6-5-3-|
-|-3-0-----3-0-----550-----6-5-3-1---1-3-0-----3-0-----550-----5/6---------|
-|-----1h3-----1h3-----3h5---------3-------1h3-----1h3-----3h5-------------|
-|-------------------------------------------------------------------------|

Chorus

Guitar 1 (listen to song for rythm)
-|---------------|
-|---------------|
-|-5-------5-----|
-|-5-3-6-4-5-3-6-|
-|-3-3-6-4-3-3-6-|
-|---1-4-2---1-4-|
Guitar 2 (same as intro riff 2 only ends w/this)
-|-----------------------|
-|-----------------------|
-|-----------------------|(played 2x times)
-|-----------------3-3h5-|
-|-6h8-8-8\3-3-6-6-------|
-|-----------------------|

Solo (probably not 100% correct)

Guitar 1
-|------------------------------------------------------------------------|
-|-9p8h9---9p8h9-11-9-8---------------------------------------------------|
-|-------8--------------8-------------------------------------------------|
-|------------------------11-10-\5~----------6-8-----------8-6-5-7/9---5~-|(played 2x)
-|-------------------------------------4-6/8-----4h6p4-6-8-----------7----|
-|-----------------------------------6------------------------------------|
Guitar 2
-|---------|
-|---------|
-|-----4-6-|
-|-4-4-4-6-|(played 4x)
-|-6-x-2-4-|
-|-4-6-----|

Pre-Interlude

Guitar 1 and 2
-|---------------------------|
-|---------------------------|
-|-----------4------------4^-|
-|---6---4-----6-6-66-4-4-4^-|(played 2x)
-|---------2---6-6-66-x-x-2^-|
-|-4---6-------4-4-44-6-6----|

Interlude (play pre-verse riff 1 2x first)
 
Guitar 1 and 2
-|---------------------------------------------------------------------------------|
-|--------------------------6----------------------------------6-------------------|
-|------------5-5-3-3h5-5/6---5-3-3-3---3-5-1h3-/5-5-3-3h5-5/6---8-----------------|
-|-6~^--------------------------------6----------------------------6-5---5-6h8p6-6-|(played 4x)
-|---------------------------------------------------------------------8-----------|
-|---------------------------------------------------------------------------------|

Ending

Guitar 1 (same as intro riff 2 but ends w/this)
-|-----------------------|------------|----|
-|-----------------------|------------|----|
-|-----------------------|------------|----|
-|-----------------3-3h5-|(played 4x)-|-3^-|
-|-6h8-8-8\3-3-6-6-------|------------|-3^-|
-|-----------------------|------------|-1^-|
Guitar 2
-|-----|-------------------------------|----|
-|-----|-------------------------------|----|
-|-3-4-|-------------------------------|----|
-|-3-4-|-------------------------------|-3^-|
-|-1-2-|(plays throughout ending riff)-|-3^-|
-|-----|-------------------------------|-1^-|





Comments


Popular In Flames tabs & chords
Bottled 2 Bass Tabs
Colony 1 Bass Tabs
Abnegation Tabs
Dreamscape Tabs
Embody The Invisble (Intro) Tabs
Everlost (Part 2) Tabs
Evil In A Closet 1 Tabs
Kop Varm Korv Tabs
The Attic Tabs
Timeless Tabs


Song lyrics



↑ Back to top | Tablatures and chords are parodies/interpretations of the original songs. You may use it for private study, scholarship, research or language learning purposes only
© 2014 AZChords.com Contact us | Privacy policy | DMCA | Add/correct tabs | Request tabs | Top 50 tabs