» » »

In Flames, Metaphor Bass tabs (ver.1)

Artists:  A B C D E F G H I J K L M N O P Q R S T U V W X Y Z # 

Metaphor Bass tabs (ver.1)

In Flames Tabs
Rating:
0/5 (0 votes)
Metaphor lessons Tabs too difficult? Try these video lessons and learn fast
                standard tuning, listen for timing

G||-----------------------------------------|
D||-----------------------------------------|
A||-----------------------------------------|
E||--1------------4--4----4--3--3------1----|


                                          
-----------------------------------------|
-----------------------------------------|
-----------------------------------------|
--1------------4--4----4--3--3------4----|


                                          
-----------------------------------------|
-----------------------------------------|
-----------------------------------------|
--4------------4--4----4--3--3------1----|


                                       
--------------------------------------|
--------------------------------------|
--------------------------------------|
--4--------4----3--------3------------|


                                          
-----------------------------------------|
-----------------------------------------|
-----------------------------------------|
--1------------4--4----4--3--3------1----|


                                          
-----------------------------------------|
-----------------------------------------|
-----------------------------------------|
--1------------4--4----4--3--3------4----|


                                          
-----------------------------------------|
-----------------------------------------|
-----------------------------------------|
--4------------4--4----4--3--3------1----|


                                       
--------------------------------------|
--------------------------------------|
--------------------------------------|
--4--------4----3--------3------------|


                                          
-----------------------------------------|
-----------------------------------------|
-----------------------------------------|
--1------------4--4----4--3--3------1----|


                                          
-----------------------------------------|
-----------------------------------------|
-----------------------------------------|
--1------------4--4----4--3--3------4----|


                                          
-----------------------------------------|
-----------------------------------------|
-----------------------------------------|
--4------------4--4----4--3--3------1----|


                                       
--------------------------------------|
--------------------------------------|
--------------------------------------|
--4--------4----3--------3------------|


                                          
-----------------------------------------|
-----------------------------------------|
-----------------------------------------|
--1------------4--4----4--3--3------1----|


                                          
-----------------------------------------|
-----------------------------------------|
-----------------------------------------|
--1------------4--4----4--3--3------4----|


                                          
-----------------------------------------|
-----------------------------------------|
-----------------------------------------|
--4------------4--4----4--3--3------1----|


                                       
--------------------------------------|
--------------------------------------|
--------------------------------------|
--4--------4----3--------3------------|


                                           
|-----------------------------------------|
|*----------------------------------------|
|*--3--------1------3-----------1----3----|
|--------------------------4--------------|


                                         
----------------------------------------|
----------------------------------------|
------3----1----3-------------1----3----|
-------------------------4--------------|


                                         
----------------------------------------|
----------------------------------------|
--3------------1--3-----------1----3----|
-------------------------4--------------|


                                        
--------------------------------------||
-------------------------------------*||
--1------------3---------------------*||
------------------4-------------------||


                                          
-----------------------------------------|
-----------------------------------------|
-----------------------------------------|
--1------------4--4----4--3--3------1----|


                                          
-----------------------------------------|
-----------------------------------------|
-----------------------------------------|
--1------------4--4----4--3--3------4----|


                                          
-----------------------------------------|
-----------------------------------------|
-----------------------------------------|
--4------------4--4----4--3--3------1----|


                                       
--------------------------------------|
--------------------------------------|
--------------------------------------|
--4--------4----3--------3------------|


                                          
-----------------------------------------|
-----------------------------------------|
-----------------------------------------|
--1------------4--4----4--3--3------1----|


                                          
-----------------------------------------|
-----------------------------------------|
-----------------------------------------|
--1------------4--4----4--3--3------4----|


                                          
-----------------------------------------|
-----------------------------------------|
-----------------------------------------|
--4------------4--4----4--3--3------1----|


                                       
--------------------------------------|
--------------------------------------|
--------------------------------------|
--4--------4----3--------3------------|


                                           
|-----------------------------------------|
|*----------------------------------------|
|*--3--------1------3-----------1----3----|
|--------------------------4--------------|


                                         
----------------------------------------|
----------------------------------------|
------3----1----3-------------1----3----|
-------------------------4--------------|


                                         
----------------------------------------|
----------------------------------------|
--3------------1--3-----------1----3----|
-------------------------4--------------|


                                                                    
--------------------------------------||------|------|------|------|
-------------------------------------*||------|------|------|------|
--1------------3---------------------*||------|------|------|------|
------------------4-------------------||------|------|------|------|


                                            
-------------------------------------------|
-------------------------------------------|
-------------------------------------------|
--1----1--1--1--------3--3--3--3--3--------|


                                            
-------------------------------------------|
-------------------------------------------|
-------------------------------------------|
--4----4--4--4--------6--6--6--6--6--------|


                                            
-------------------------------------------|
-------------------------------------------|
-------------------------------------------|
--1----1--1--1--------3--3--3--3--3--------|


                                            
-------------------------------------------|
-------------------------------------------|
-------------------------------------------|
--4----4--4--4--------6--6--6--6--6--------|


                                            
-------------------------------------------|
-------------------------------------------|
-------------------------------------------|
--1----1--1--1--------3--3--3--3--3--------|


                                            
-------------------------------------------|
-------------------------------------------|
-------------------------------------------|
--4----4--4--4--------6--6--6--6--6--------|


                                            
-------------------------------------------|
-------------------------------------------|
-------------------------------------------|
--1----1--1--1--------3--3--3--3--3--------|


                                            
-------------------------------------------|
-------------------------------------------|
-------------------------------------------|
--4----4--4--4--------6--6--6--6--6--------|


                                            
-------------------------------------------|
-------------------------------------------|
-------------------------------------------|
--1----1--1--1--------3--3--3--3--3--------|


                                            
-------------------------------------------|
-------------------------------------------|
-------------------------------------------|
--4----4--4--4--------6--6--6--6--6--------|


                                            
-------------------------------------------|
-------------------------------------------|
-------------------------------------------|
--1----1--1--1--------3--3--3--3--3--------|


                                            
-------------------------------------------|
-------------------------------------------|
-------------------------------------------|
--4----4--4--4--------6--6--6--6--6--------|


                                           
|-----------------------------------------|
|*----------------------------------------|
|*--3--------1------3-----------1----3----|
|--------------------------4--------------|


                                         
----------------------------------------|
----------------------------------------|
------3----1----3-------------1----3----|
-------------------------4--------------|


                                         
----------------------------------------|
----------------------------------------|
--3------------1--3-----------1----3----|
-------------------------4--------------|


                                        
--------------------------------------||
-------------------------------------*||
--1------------3---------------------*||
------------------4-------------------||


                                          
-----------------------------------------|
-----------------------------------------|
-----------------------------------------|
--1------------4--4----4--3--3------1----|


                                          
-----------------------------------------|
-----------------------------------------|
-----------------------------------------|
--1------------4--4----4--3--3------4----|


                                          
-----------------------------------------|
-----------------------------------------|
-----------------------------------------|
--4------------4--4----4--3--3------1----|


                                       
--------------------------------------|
--------------------------------------|
--------------------------------------|
--4--------4----3--------3------------|


                                          
-----------------------------------------|
-----------------------------------------|
-----------------------------------------|
--1------------4--4----4--3--3------1----|


                                          
-----------------------------------------|
-----------------------------------------|
-----------------------------------------|
--1------------4--4----4--3--3------4----|


                                          
-----------------------------------------|
-----------------------------------------|
-----------------------------------------|
--4------------4--4----4--3--3------1----|


                                                            
--------------------------------------|-------------------||
--------------------------------------|-------------------||
--------------------------------------|-------------------||
--4--------4----3--------3------------|--1----------------||
            

comments powered by Disqus
↑ Back to top | In Flames Bass for Metaphor. Lyrics for acoustic guitar and electric guitar. Tablatures and chords are parodies/interpretations of the original songs. You may use it for private study, scholarship, research or language learning purposes only