>
 >
Jotun 2

Jotun 2 Bass Tabs

In Flames - Jotun 2 chords, tabs, tablatures, lyrics

Guitar lessons | Add/correct | Request | Top 50 tabs Artists:  A B C D E F G H I J K L M N O P Q R S T U V W X Y Z 0-9

Jotun 2 Bass Tabs – In Flames

CD, Sheet music, Poster

Do you like Jotun 2? Share with your friends now
Bass TabsBass Tabs v2Bass Tabs v3Bass Tabs v4Bass Tabs v5Bass Tabs v6TabsTabs v2Tabs v3
-=In Flames=-
                 -=JOTUN=-


written by in flames...
on the clayman album...

please give it a rating.
asterix indicates verse which is repeated

this tab is not yet finished i will add in the time 
so it wont be as confusing...

 Intro Riff            2x
*|------------------------------------------------------------|
|-------------------------------------------------------------|
|5-----------5----------3-3------5-----------1--1--1--1--1-1--|
|--3--3---------h1--3--------------3--3--4--------------------|
|--------------4----------------------------------------------|

|--------------------------------------|*
|--------------------------------------|
|-----------------------------3--3--5--|
|--------------1--3--3-----4-----------|
|--1--4--4-----------------------------|


    Riff A                          2x
*|------------------------------------------------------------|*
|-------------------------------------------------------------|
|-----------3-----------5-------------------------------------|
|-----------------------------3--3--3--3--3--3--3--3--3--3--3-|
|--1--1--1-----1--1--1-----1----------------------------------|


Riff B 2x
*|--------------------------------------------------|*
|---------------------------------------------------|
|---------------------------------------------------|
|---------------------1--1--4--4--4--4--3--3--3--3--|
|--1--1---1--4--4--4--------------------------------|

|-------------------------|
|-------------------------|
|-------------------------|
|-------------------------|
|--1--1--1-----------1----|

|----------------------------------------------------------|
|----------------------------------------------------------|
|----------------------------------------------------------|
|-----------------------------------------1-----1/4-----3--|
|--1--1--1-----1--1--1--1-----1-----4----------------------|



    Riff A 2x 

           Chorus Riff               2x
*|---------------------------------------------------|*
|----------------------------------------------------|
|--5--5--5--------------3--3--3--3-------------------|
|-----------3--3--3--3--------------1--1--1--1-------|
|-----------------------------------------------4----|



|-----------------------------------------------|
|-----------------------------------------------|
|-----------3--3--3--3--1--1--1--3--5--5--5--5--|
|-----------------------------------------------|
|--4--4--4--------------------------------------|

|----------------------|
|----------------------|
|--5--5--------3--5----|
|----------------------|
|----------------------|

|---------------------------------------------------------------------|
|---------------------------------------------------------------------|
|----5--5--5--5--5--5--5-----5-----5--------3-----5--5--5--5--1--3----|
|---------------------------------------------------------------------|
|--------------------------------1----1--1-----1----------------------|

|---------------------------------------------------------------------|
|---------------------------------------------------------------------|
|----5-----5--------5-----5-----5--5--5--5--5--5--5-----5-----5-------|
|---------------------------------------------------------------------|
|-------1-----1--1-----1-----1-----------------------------1-----1----|


                                   
|--------------------------------|
|--------------------------------|
|-----3-----5-----5--5--5--1--3--|
|--------------------------------|
|--1-----1-----1-----------------|

 4x
*|--------------------------------------------------|*
|---------------------------------------------------|
|---------------------------------------------------|
|---------------------------------------------------|
|--4--1--4--1--4--2--1--4--4--4--4------4--4--4--4--|

                   4x
*|-------------------------------------------------|*
|--------------------------------------------------|
|--5-----5--------3-----5-----5--5--5--5--5--5--5--|
|--------------------------------------------------|
|-----1-----1--1-----1-----1-----------------------|

Riff A 2x
Riff B 2x
Riff A 2x
Chorus 4x

|----------------------------------------------------------------
|----------------------------------------------------------------
|----------------------------------------------------------------
|----------------------------------------------------------------
|--1--1--1--1--1--1--1--1--1-----4--4--4--4--4--4--4--4--4-------



-----------------------------3--3--3--3--3--3--3----------------------
--3--3--3--3--3--3--3--3--3-------------------------------------------
-----------------------------------------------------1--1--1--1--1----



-----------------------------------------------3--3--3--3--3--3--3----
--1--1--1--1-----4--4--4--4--4--4--4--4--4----------------------------


--------------------|                                
--------------------|
--------------------| 
--3-----4--4--4--4--| 
--------------------| 

Chorus 2x 

Outro       2x
*|------------------------------|
|-------------------------------|
|--5--5--5--5-------------------|
|--------------3--1--1----------|
|--------------------------4----|

|----------------------------------------------------------------------|
|----------------------------------------------------------------------|
|-----------1--3--3-----5--5--5--5-----------3--3--3--3--3--3--3--3----|
|-----------------------------------3--1--1----------------------------|
|--4--4--4-------------------------------------------------------------|

|-----------------------------------------|*
|-----------------------------------------|
|-----------------------------3--3-----5--|
|--------------1--3--3-----4--------------|
|--1--4--4--------------------------------|

this was sorta difficult to tab since im not used to playing
any inflames on 5 string basses but i thought id give it a shot
please give it a rating





Comments


Popular In Flames tabs & chords
Moonshield Bass Tabs
Satellites And Astronauts Bass Tabs
The Jester Race 2 Bass Tabs
Trigger Chords
Clad In Shadows Tabs
Come Clarity Intro Tabs
Fear Is The Weakness Intro Tabs
Jotun Tabs
Pacing Deaths Trail Tabs
Trigger 1 Tabs


Song lyrics



↑ Back to top | Tablatures and chords are parodies/interpretations of the original songs. You may use it for private study, scholarship, research or language learning purposes only
© 2014 AZChords.com Contact us | Privacy policy | DMCA | Add/correct tabs | Request tabs | Top 50 tabs