» » »

In Flames, Jotun Bass tabs (ver.3)

Artists:  A B C D E F G H I J K L M N O P Q R S T U V W X Y Z # 

Jotun Bass tabs (ver.3)

In Flames Tabs
Rating:
0/5 (0 votes)
Jotun lessons Tabs too difficult? Try these video lessons and learn fast
                IN FLAMES - Jotun (BASS)
                    	From the Album CLAYMAN







.  - palm mute          /  - slide up to
\  - slide down to      ~  - vibrato
h  - hammer on          b  - bend
p  - pull off            Suffixes for bend
                          ph - pinch harmonic
                           f - full bend    h - half bend
*  - see comment           r - release      t - tap bend
X  - percussion mute       ~ - vibrato bend
@  - slight palm mute     () - ghost note, sustained note

This is one of the few In Flames tabs that actually is tabbed for a 
5-string, this beacuse im tired to
tune down my bass, and figured i might not be the only one...


        Intro Riff            2x
|-------------------------------------------------------------|----
|-------------------------------------------------------------|----
|5-----------5----------3-3------5-----------1--1--1--1--1-1--|----
|--3--3---------h1--3--------------3--3--4--------------------|----
|--------------4----------------------------------------------|----



--------------------------------------|-------------------------------
--------------------------------------|-------------------------------
-----------------------------3--3--5--|-------------------------------
--------------1--3--3-----4-----------|-------------------------------
--1--4--4-----------------------------|-------------------------------


    Riff A                          2x
-----------3-----------5----------------------------------------------
-----------------------------3--3--3--3--3--3--3--3--3--3--3----------
--1--1--1-----1--1--1-----1-----------------------------------1--1----


                                                 Riff B 2x
--------------------------------------------|-------------------------
--------------------------------------------|-------------------------
--------------------------------------------|-------------------------
--------------1--1--4--4--4--4--3--3--3--3--|-------------------------
--1--4--4--4--------------------------------|--1--1--1-----------1----



----------------------------------------------------------|-----------
----------------------------------------------------------|-----------
----------------------------------------------------------|-----------
-----------------------------------------1-----1/4-----3--|-----------
--1--1--1-----1--1--1--1-----1-----4----------------------|-----------



    Riff A 2x            Chorus Riff               2x
-----------------|----------------------------------------------------
-----------------|----------------------------------------------------
-----------------|--5--5--5--------------3--3--3--3-------------------
-----------------|-----------3--3--3--3--------------1--1--1--1-------
-----------------|-----------------------------------------------4----



-----------------------------------------------|----------------------
-----------------------------------------------|----------------------
-----------3--3--3--3--1--1--1--3--5--5--5--5--|--5--5--------3--5----
-----------------------------------------------|----------------------
--4--4--4--------------------------------------|----------------------



----5--5--5--5--5--5--5-----5-----5--------3-----5--5--5--5--1--3----
--------------------------------1----1--1-----1----------------------



-----5-----5--------5-----5-----5--5--5--5--5--5--5-----5-----5-------
--------1-----1--1-----1-----1-----------------------------1-----1----


                                     4x
--------------------------------|-------------------------------------
--------------------------------|-------------------------------------
-----3-----5-----5--5--5--1--3--|-------------------------------------
--------------------------------|-------------------------------------
--1-----1-----1-----------------|--4--1--4--1--4--2--1--4--4--4--4----


                   4x
--------------|--------------------------------------------------|
--------------|--------------------------------------------------|
--------------|--5-----5--------3-----5-----5--5--5--5--5--5--5--|
--------------|--------------------------------------------------|
--4--4--4--4--|-----1-----1--1-----1-----1-----------------------|



Riff A 2x
Riff B 2x
Riff A 2x
Chorus 4x



|----------------------------------------------------------------
|----------------------------------------------------------------
|----------------------------------------------------------------
|----------------------------------------------------------------
|--1--1--1--1--1--1--1--1--1-----4--4--4--4--4--4--4--4--4-------



-----------------------------3--3--3--3--3--3--3----------------------
--3--3--3--3--3--3--3--3--3-------------------------------------------
-----------------------------------------------------1--1--1--1--1----



-----------------------------------------------3--3--3--3--3--3--3----
--1--1--1--1-----4--4--4--4--4--4--4--4--4----------------------------


                         Chorus 2x         Outro       2x
--------------------|-----------------|-------------------------------
--------------------|-----------------|-------------------------------
--------------------|-----------------|--5--5--5--5-------------------
--3-----4--4--4--4--|-----------------|--------------3--1--1----------
--------------------|-----------------|--------------------------4----



-----------1--3--3-----5--5--5--5-----------3--3--3--3--3--3--3--3----
-----------------------------------3--1--1----------------------------
--4--4--4-------------------------------------------------------------



|-----------------------------------------|
|-----------------------------------------|
|-----------------------------3--3-----5--|
|--------------1--3--3-----4--------------|
|--1--4--4--------------------------------|
            

comments powered by Disqus
↑ Back to top | In Flames Bass for Jotun. Lyrics for acoustic guitar and electric guitar. Tablatures and chords are parodies/interpretations of the original songs. You may use it for private study, scholarship, research or language learning purposes only