>
 >
Jester Script Trancribed

Jester Script Trancribed Guitar Tabs

In Flames - Jester Script Trancribed chords, tabs, tablatures, lyrics

Guitar lessons | Add/correct | Request | Top 50 tabs Artists:  A B C D E F G H I J K L M N O P Q R S T U V W X Y Z 0-9

Jester Script Trancribed Guitar Tabs – In Flames

CD, Sheet music, Poster

Do you like Jester Script Trancribed? Share with your friends now
Tabs

Tune Gtr to 6:C, 5:F, 4:Bb, 3:Eb, 2:G, 1:C

Jester Script Transfigured

Riff A
|-0-0--0-0--0-0-0--0-0--0-0--0-0-0--3-3--3-3--3-3-3-0-0--0-0--0-0-0--|
|-3-3--3-3--3-3-3--1-1--1-1--1-1-1--0-0--0-0--0-0-0-0-0--0-0--0-0-0--|
|-2-2--2-2--2-2-2--0-0--0-0--0-0-0--0-0--0-0--0-0-0-0-0--0-0--0-0-0--|Gtrs
|-0-0--0-0--0-0-0--2-2--2-2--2-2-2--0-0--0-0--0-0-0-2-2--2-2--2-2-2--|I&II
|-0-0--0-0--0-0-0--3-3--3-3--3-3-3--2-2--2-2--2-2-2-2-2--2-2--2-2-2--|
|-----------------------------------3-3--3-3--3-3-3-0-0--0-0--0-0-0--|

|-0-0--0-0--0-0-0--0-0--0-0--0-0-0--0-0--0-0--0-0-0-2-2--2-2--2-2-2--|
|-3-3--3-3--3-3-3--1-1--1-1--1-1-1--1-1--1-1--1-1-1-3-3--3-3--3-3-3--|
|-2-2--2-2--2-2-2--0-0--0-0--0-0-0--0-0--0-0--0-0-0-2-2--2-2--2-2-2--|Gtrs
|-0-0--0-0--0-0-0--2-2--2-2--2-2-2--2-2--2-2--2-2-2-0-0--0-0--0-0-0--|I&II
|-0-0--0-0--0-0-0--0-0--0-0--0-0-0--3-3--3-3--3-3-3-0-0--0-0--0-0-0--|
|--------------------------------------------------------------------|


Riff B1
|-8~-----8~-----------7~---------------------------------------------|
|----------------------------8~----10~-----8~------------------------|
|------------------------------------------------9------7------------|Gtr
|------------------------------------------------------------10~-----| I
|--------------------------------------------------------------------|
|--------------------------------------------------------------------|
| |
|--------------------------------------------------------------------|
|--------------------------------------------------------------------|
|-5~-----5~-----------4~---------------------------------------------|Gtr
|----------------------------5~----7~------5~------------------------| II
|------------------------------------------------7------5----3~------|
|--------------------------------------------------------------------|
| |
|--------------------------------------------------------------------|
|--------------------------------------------------------------------|
|-2------------------------------------------------------------------|Gtr
|-2-------------------5--------------------------3-------------------|III
|-0-------------------5------------5-------------3-------------------|
|---------------------3------------2-------------1-------------------|

|-8~-------8~---------10-8h10p8p7-------------8----------------------|
|-----------------------------------8~--8--10----10~-----------------|
|--------------------------------------------------------------------|Gtr
|--------------------------------------------------------------------| I
|--------------------------------------------------------------------|
|--------------------------------------------------------------------|
| |
|--------------------------------------------------------------------|
|--------------------------------------------------------------------|
|-5~-------5~---------7-5h7p5p4---------------4----------------------|Gtr
|-----------------------------------5~--5--7-----7~------------------| I
|--------------------------------------------------------------------|
|--------------------------------------------------------------------|
| |
|--------------------------------------------------------------------|
|--------------------------------------------------------------------|
|-2------------------4--------------5------------7-------------------|Gtr
|-2------------------4--------------5------------7-------------------| II
|-0------------------2--------------3------------5-------------------|
|--------------------------------------------------------------------|


Riff B2
|-8~-----8~-----------7~---------------------------------------------|
|----------------------------8~----10~-----8~------------------------|
|------------------------------------------------9------7------------|Gtr
|------------------------------------------------------------10~-----| I
|--------------------------------------------------------------------|
|--------------------------------------------------------------------|
| |
|--------------------------------------------------------------------|
|--------------------------------------------------------------------|
|-5~-----5~-----------4~---------------------------------------------|Gtr
|----------------------------5~----7~------5~------------------------| II
|------------------------------------------------7------5----3~------|
|--------------------------------------------------------------------|
| |
|--------------------------------------------------------------------|
|--------------------------------------------------------------------|
|-2------------------------------------------------------------------|Gtr
|-2-------------------5--------------------------3-------------------|III
|-0-------------------5------------5-------------3-------------------|
|---------------------3------------2-------------1-------------------|

|----------------8-------|
|-8h10-8~-----10----10~--|
|------------------------|Gtr
|------------------------| I
|------------------------|
|------------------------|
| |
|------------------------|
|------------------------|
|----------------4-------|Gtr
|-5h7--5~-----7-----7~---| II
|------------------------|
|------------------------|
| |
|------------------------|
|------------------------|
|-------------------2----|Gtr
|-2----2------2--2--2----|III
|-2----2------2--2--0----|
|-0----0------0--0-------|
. .

Fill 1
|-------------|
|-------------|
|-7-----------|
|-7-----------|
|-5-----------|
|-------------|

Fill 2
|---------------------| |---------------------|
|---------------------| |-----------5---------|
|---------------9-----|Gtr OR |-----2h4h5-----------|Gtr
|--------7h9h10-------| I |-2h5-----------------| I
|-7h10----------------| |---------------------|
|---------------------| |---------------------|
(whichever you reach easiest)

Fill 3 (clean)
|-----------3-----------3-----------3-----------3--------|
|---3---3-------3---3-------3---3-------3---3------------|
|-----5---5-------5---5-------5---5-------5---5----------|Gtr
|--------------------------------------------------------| I
|-0-----------0-----------0-----------0------------------|
|--------------------------------------------------------|
| |
|--------------------------------------------------------|
|--------------------------------------------------------|
|-2------------------------------------------------------|Gtr
|-2------------------------------------------------------| II
|-0------------------------------------------------------|
|--------------------------------------------------------|


Clean Solo 1 over Riff C (1 bar/riff, see CD for phrasing)
|---------5---------------------------5-----5------------|
|---------------------------------------------8-7h8p7-5~-|
|-4-6-7-----------6-7-6-4---4-6-4-6-7---6-7--------------|Gtr
|-------7-----4-7---------7------------------------------| I
|--------------------------------------------------------|
|--------------------------------------------------------|

|--------------------------------------------------------|
|-----------------------------7-8-8-8-7-7h8p7---7--------|
|-4-6-7-6-4---6-7-9-7-6---7-9-----------------7---9~-----|Gtr
|-----------7-----------9--------------------------------| I
|--------------------------------------------------------|
|--------------------------------------------------------|

|---------5-------------------------5-------10-9h10p9----|
|-----------------------------------------10----------10~|
|-4-6-7---------6-7-6-4---4-6-4-6-7---6-7----------------|Gtr
|-------7---4-7---------7--------------------------------| I
|--------------------------------------------------------|
|--------------------------------------------------------|

|--------------------------------------------------------|
|-----------------------------7-8-8-8-7-7h8p7---7-10~----|
|-4-6-7-6-4---6-7-9-7-6---7-9-----------------7----------|Gtr
|-----------7-----------9--------------------------------| I
|--------------------------------------------------------|
|--------------------------------------------------------|

Riff C
|----------5-------------------------------------------5-|
|---2-3-----------3--------3------3------5------3----5---|
|-4------2---2------2----4------4------4------2----2-----|Gtr
|---------------4------5------5------2------0------------| II
|--------------------------------------------------------|
|--------------------------------------------------------|

Riff D (dist.)
|--------------------------------------------------------------------|
|--------------------------------------------------------------------|
|-4----6-----7---------------------------------6---------------------|Gtr
|------------------7~--------------4------7--------5~----------------| I
|--------------------------------------------------------------------|
|--------------------------------------------------------------------|
| |
|--------------------------------------------------------------------|
|--------------------------------------------------------------------|
|-4----------------2-------------------------------------------------|Gtr
|-4----------------2---------------4---------------5-----------------| II
|-2----------------0---------------4---------------5-----------------|
|----------------------------------2---------------3-----------------|


|--------------------------------------------------------------------|
|-----------------5~-------5~------7--5h7p5--------------------------|
|-----------4---------------------------------7----------------------|Gtr
|-5----7-------------------------------------------7~----------------| I
|--------------------------------------------------------------------|
|--------------------------------------------------------------------|
| |
|--------------------------------------------------------------------|
|--------------------------------------------------------------------|
|----------------------------------7---------------------------------|Gtr
|-5---------------9----------------7---------------7-----------------| II
|-5---------------7----------------5---------------7-----------------|
|-3---------------0--------------------------------5-----------------|

Riff E
|--------------------------------------------------------------------|
|-12----14----15---14~----12-------14----15---17---15~---------------|
|-----------------------------14-------------------------------------|Gtr
|--------------------------------------------------------------------| I
|--------------------------------------------------------------------|
|--------------------------------------------------------------------|
| |
|--------------------------------------------------------------------|
|--------------------------------------------------------------------|
|-4----------------2-------------------------------------------------|Gtr
|-4----------------2---------------4---------------5-----------------| II
|-2----------------0---------------4---------------5-----------------|
|----------------------------------2---------------3-----------------|


|------17---------15----------15---14-14h15p14----14-17~-------------|
|-15--------15----------15---------------------15--------------------|
|--------------------------------------------------------------------|Gtr
|--------------------------------------------------------------------| I
|--------------------------------------------------------------------|
|--------------------------------------------------------------------|
| |
|------17---------15----------15---14-14h15p14----14-----------------|
|-15--------15----------15---------------------15----17~-------------|
|--------------------------------------------------------------------|Gtr
|--------------------------------------------------------------------| III
|--------------------------------------------------------------------|
|--------------------------------------------------------------------|
| |
|--------------------------------------------------------------------|
|--------------------------------------------------------------------|
|----------------------------------7---------------------------------|Gtr
|-5---------------9----------------7---------------7-----------------| II
|-5---------------7----------------5---------------7-----------------|
|-3---------------0--------------------------------5-----------------|


|--------------------------------------------------------------------|
|-12----14----15---14~----12-----------------------------------------|
|-----------------------------14---------14----11--9h11p9------------|Gtr
|----------------------------------12h14----14-------------12--11----| I
|--------------------------------------------------------------------|
|--------------------------------------------------------------------|
| |
|-------------14-----------------------------------------------------|
|-15----17---------17~----15--14~------------------------------------|
|--------------------------------------------------------------------|Gtr
|--------------------------------------------------------------------|III
|--------------------------------------------------------------------|
|--------------------------------------------------------------------|
| |
|--------------------------------------------------------------------|
|--------------------------------------------------------------------|
|-4----------------2-------------------------------------------------|Gtr
|-4----------------2---------------4---------------5-----------------| II
|-2----------------0---------------4---------------5-----------------|
|----------------------------------2---------------3-----------------|


|--------------------------------------10-9h10p9---------------------|
|-----------------10---------------10--------------10~---------------|
|--------------------------------------------------------------------|Gtr
|-9----11---12----------11---12--------------------------------------| I
|--------------------------------------------------------------------|
|--------------------------------------------------------------------|
| |
|--------------------------------------------------------------------|
|--------------------------------------------------------------------|
|----------------------------------7---------------------------------|Gtr
|-5---------------9----------------7---------------7-----------------| II
|-5---------------7----------------5---------------7-----------------|
|-3---------------0--------------------------------5-----------------|

Fill 4
|----------------|
|----------------|
|----------------|Gtr
|--7/9-9-7/9-----| II
|--7/9-9-7/9-----|
|--5/7-7-5/7-----|


Riff F
|-9h10---9-----------------------------------------------------------|
|------------10---12~----------10--10h12~-10h12p10-------------------|
|--------------------------11-----------------------9--11~-----------|Gtr
|----------------------12--------------------------------------------| I
|--------------------------------------------------------------------|
|--------------------------------------------------------------------|
| |
|--------------------------------------------------------------------|
|--------------------------------------------------------------------|
|-4---------------7------------------------------------4-------------|Gtr
|-4---------------7----------------5-------------------4-------------| II
|-2---------------5----------------5-------------------2-------------|
|----------------------------------3---------------------------------|

|-9h10---9------------------------10----10----10h12----9~------------|
|------------10---12~---------10-------------------------------------|
|-------------------------11-----------------------------------------|Gtr
|---------------------12---------------------------------------------| I
|--------------------------------------------------------------------|
|--------------------------------------------------------------------|
| |
|--------------------------------------------------------------------|
|--------------------------------------------------------------------|
|-4---------------7--------------------------------------------------|Gtr
|-4---------------7----------------5-------------------4-------------| II
|-2---------------5----------------5-------------------4-------------|
|----------------------------------3-------------------2-------------|

Riff G
|-10--10--10h12---9~---------------10---10----10h12----9~------------|
|--------------------------------------------------------------------|
|--------------------------------------------------------------------|Gtr
|--------------------------------------------------------------------| I
|--------------------------------------------------------------------|
|--------------------------------------------------------------------|
| |
|----------------------------------14---14--14h15p14---12~-----------|
|--------------------------------------------------------------------|
|--------------------------------------------------------------------|Gtr
|--------------------------------------------------------------------|III
|--------------------------------------------------------------------|
|--------------------------------------------------------------------|
| |
|--------------------------------------------------------------------|
|--------------------------------------------------------------------|
|--------------------------------------------------------------------|Gtr
|-5---------------4----------------5-------------------4-------------| II
|-5---------------4----------------5-------------------4-------------|
|-3---------------2----------------3-------------------2-------------|

|-10--10--10h12---9~---------------|
|----------------------------------|
|----------------------------------|Gtr
|----------------------------------| I
|----------------------------------|
|----------------------------------|
| |
|-14-14-14h15p14--12~--------------|
|----------------------------------|
|----------------------------------|Gtr
|----------------------------------|III
|----------------------------------|
|----------------------------------|
| |
|----------------------------------|
|----------------------------------|
|----------------------------------|Gtr
|-5---------------4----------------| II
|-5---------------4----------------|
|-3---------------2----------------|

Final Solo
|--------------------------------------------------------------------|
|--too muffled, too many effects. any ideas?-------------------------|
|--------------------------------------------------------------------|Gtr
|--------------------------------------------------------------------| I
|--------------------------------------------------------------------|
|--------------------------------------------------------------------|

Arrangement:
Riff A (0.04) x3
Riff B1 (0.52)
Riff B2 (1.00)
Riff A (1.08) x2 With Fill 1 at end
Riff B1 (1.40)
Riff B2 (1.48)
Fill 2 (1.55)
Riff B1 (1.56)
Riff B2 (2.03)
Fill 3 (2.10)
Riff C and Solo 1 (2.18)
Riff D (2.50) x2
Riff E (3.06)
Fill 4 (3.22)
Riff F (3.24) x2
Riff G (3.45)
Solo 1 over Riff C (skipping bar 3 and with effects on bar 4) (3.54)
Riff B1 (4.10)
Riff B2 (4.18)
Repeat B1 and B2 under the final solo until fade out.





Comments


Popular In Flames tabs & chords
Jotun 1 Bass Tabs
Stand Ablaze Bass Tabs
Worlds Within The Margin Bass Tabs
Alias Intro Tabs
Dialogue With The Stars 2 Tabs
F(R)Iend Tabs
Jester Script Transfigured Tabs
Only For The Week Tabs
Paller Anders Visa Tabs
Satellites And Astronauts Tabs


Song lyrics



↑ Back to top | Tablatures and chords are parodies/interpretations of the original songs. You may use it for private study, scholarship, research or language learning purposes only
© 2014 AZChords.com Contact us | Privacy policy | DMCA | Add/correct tabs | Request tabs | Top 50 tabs