» » »

In Flames, Insipid 2000 Tabs (ver.1)

Artists:  A B C D E F G H I J K L M N O P Q R S T U V W X Y Z # 

Insipid 2000 Tabs (ver.1)

In Flames Tabs
Rating:
0/5 (0 votes)
Insipid 2000 lessons Tabs too difficult? Try these video lessons and learn fast
                Tuning:  C Standard

Alright, I'm just starting this tab - as you can see.  It's a really messed up song
and I can't hear a couple parts, but I'm working on it.  This is what I have so 
far, it should be pretty straight forward.  Listen to the rhythm patterns. 
e -----------------|------------------------------
B -----------------|------------------------------
G 7--5-------------|------------------------------
D ------8--7--5----|------------------------------
A ---------------8-|---333---555---777------7-9-10
E -----------------|111---333---555---7-8-10------

e ---------------------------------------|--------
B ---------------------------------------|--------
G ---------------------------------------|---7----
D 10-10-9-9-10-7-9-10-7-5-10-9-9999-9-10-|5--7--2-
A --0--0-0-0--0-0-0--0-0-0--0-0----0-0---|5--5--2-
E ---------------------------------------|3-----0-
            

comments powered by Disqus
↑ Back to top | In Flames Tabs for Insipid 2000. Lyrics for acoustic guitar and electric guitar. Tablatures and chords are parodies/interpretations of the original songs. You may use it for private study, scholarship, research or language learning purposes only