» » »

In Flames, In Flames Tabs (ver.1)

Artists:  A B C D E F G H I J K L M N O P Q R S T U V W X Y Z # 

In Flames Tabs (ver.1)

In Flames Tabs
Rating:
0/5 (0 votes)
In Flames lessons Tabs too difficult? Try these video lessons and learn fast
                Tune To D
Correction /=Slide p=Pulloff h=Hammer on b=Bend 
r=Relese fb=Full bend *=harony flasions
 
Solo After the Acoustic brake
E--/10---10/12-12-12-13-13p12h13p12-12---------------------------------------------------|
B-------------------------------------13-13br*--------------------------------------------|
G----------------------------------------------14-12----12br*----------------12-12br*------|
D----------------------------------------------------15------15-12----12h15---------15-12|
A------------------------------------------------------------------15--------------------|


Continue
B----------------------------------------15-----20p15h18p15h20p15h18p15h20p15h18p15h20p15h18p15h20p15h18p15h20p15h18p15h20-|
G-------------------------------12----12----14-------------------------------------------------------------------------------|
D-------------------12----12h15----15--------------------|
A----------------------15-------------------|

Continue
------------------------------|
-------------------------------|
--17p14----14br*-------------------------|
--------17--------17-14-----------15h17-17br*p15---------------------15h17-17fb-r-p---15h17-17fb-17b-|
-------------------------17-15h17----------------17---------15--15h17---------------17-|
----------------------------------------------------15-16-17--17-------|
            
Submit corrections

comments powered by Disqus
↑ Back to top | In Flames Tabs for In Flames. Lyrics for acoustic guitar and electric guitar. Tablatures and chords are parodies/interpretations of the original songs. You may use it for private study, scholarship, research or language learning purposes only