>
 >
Gyroscope

Gyroscope Bass Tabs

In Flames - Gyroscope chords, tabs, tablatures, lyrics

Guitar lessons | Add/correct | Request | Top 50 tabs Artists:  A B C D E F G H I J K L M N O P Q R S T U V W X Y Z 0-9

Gyroscope Bass Tabs – In Flames

CD, Sheet music, Poster

Do you like Gyroscope? Share with your friends now
Bass TabsTabsTabs v2
Tune Down

G#||--------------------|--------------------|--------------------|
D#||-----------4--2-----|--------------------|-----------4--2-----|
A#||--2---2----------5--|-----5--4-----5--4--|--2---2----------5--|
F ||--------2-----------|--3--------5--------|--------2-----------|
C ||--------------------|--------------------|--------------------|


                                                               
--------------------|--------------------|--------------------|
--------------------|-----------4--2-----|--------------------|
-----5--4-----5--4--|--2---2----------5--|-----5--4-----5--4--|
--3--------5--------|--------2-----------|--3--------5--------|
--------------------|--------------------|--------------------|


                                                                            
--------------------|--------------------|----------------|----------------|
-----------4--2-----|--------------------|----------------|-------------0--|
--2---2----------5--|-----5--4-----5--4--|--0----------2--|--3-------------|
--------2-----------|--3--------5--------|----------------|----------------|
--------------------|--------------------|----------------|----------------|


                                                                             
-------------2--|--0--2----------|---------------------|--------------------|
--2-------------|----------------|---------------------|--------------4--2--|
----------------|----------------|-----------9--7------|-----5--4-----------|
----------------|----------------|-----------------10--|--3-----------------|
----------------|----------------|--0---0-0------------|-----------3--------|


                                                                 
---------------------|--------------------|---------------------|
---------------------|-----0--------------|---------------------|
-----------9--7------|--------4--4--2-----|-----------9--7------|
-----------------10--|--3--------------5--|-----------------10--|
--0---0-0------------|--------------------|--0---0-0------------|


                                                                
--------------------|---------------------|--------------------|
--------------4--2--|---------------------|-----0--------------|
-----5--4-----------|-----------9--7------|--------4--4--2-----|
--3-----------------|-----------------10--|--3--------------5--|
-----------3--------|--0---0-0------------|--------------------|


                                                                 
---------------------|--------------------|---------------------|
---------------------|--------------4--2--|---------------------|
-----------9--7------|-----5--4-----------|-----------9--7------|
-----------------10--|--3-----------------|-----------------10--|
--0---0-0------------|-----------3--------|--0---0-0------------|


                                                                
--------------------|---------------------|--------------------|
-----0--------------|---------------------|--------------4--2--|
--------4--4--2-----|-----------9--7------|-----5--4-----------|
--3--------------5--|-----------------10--|--3-----------------|
--------------------|--0---0-0------------|-----------3--------|


                                                               
---------------------|--------------------|-------------------|
---------------------|-----0--------------|-------------------|
-----------9--7------|--------4--4--2-----|-------------------|
-----------------10--|--3--------------5--|--7----7--7--7--9--|
--0---0-0------------|--------------------|-------------------|


                                                                      
--------------------|-----------------------|------------------------|
--------------------|-----------------------|------------------------|
--7-----------------|--7--------------------|------------------------|
-----10--9--7----7--|-----10--9--7--7-7-7-7-|-------------7--7-7-7-7-|
--------------------|-----------------------|--7--7-7-7-7------------|


                                                                 
-------------------|--------------------|-----------------------|
-------------------|--------------------|-----------------------|
-------------------|--7-----------------|--7--------------------|
--7----7--7--7--9--|-----10--9--7----7--|-----10--9--7--7-7-7-7-|
-------------------|--------------------|-----------------------|


                                                                    
------------------------|---------------------|--------------------|
------------------------|---------------------|--------------4--2--|
------------------------|-----------9--7------|-----5--4-----------|
-------------7--7-7-7-7-|-----------------10--|--3-----------------|
--7--7-7-7-7------------|--0---0-0------------|-----------3--------|


                                                                 
---------------------|--------------------|---------------------|
---------------------|-----0--------------|---------------------|
-----------9--7------|--------4--4--2-----|-----------9--7------|
-----------------10--|--3--------------5--|-----------------10--|
--0---0-0------------|--------------------|--0---0-0------------|


                                                                
--------------------|---------------------|--------------------|
--------------4--2--|---------------------|-----0--------------|
-----5--4-----------|-----------9--7------|--------4--4--2-----|
--3-----------------|-----------------10--|--3--------------5--|
-----------3--------|--0---0-0------------|--------------------|


                                                               
--------------------|--------------------|--------------------|
--------------------|--------------------|--------------------|
--------------------|--------------------|--------------------|
--3--3--3--2--------|--2--3--2--0--------|--3--3--3--2--------|
--------------3--0--|--------------0--0--|--------------3--0--|


                                                               
--------------------|--------------------|--------------------|
--------------------|--------------------|--------------------|
--------------------|--------------------|--2--2--2--2--2--2--|
--2--3--2--0--------|--3--3--3--3--3--3--|--------------------|
--------------0--0--|--------------------|--------------------|


                                                               
--------------------|--------------------|--------------------|
--------------------|--------------------|--------------------|
--------------------|--2--2--2--2--2--2--|--------------------|
--3--3--3--5--5--5--|--------------------|--3--3--3--3--3--3--|
--------------------|--------------------|--------------------|


                                                               
--------------------|--------------------|--------------------|
--------------------|--------------------|--------------------|
--2--2--2--2--2--2--|--------------------|--2--2--2--2--2--2--|
--------------------|--3--3--3--5--5--5--|--------------------|
--------------------|--------------------|--------------------|


                                                                 
---------------------|--------------------|---------------------|
---------------------|--------------4--2--|---------------------|
-----------9--7------|-----5--4-----------|-----------9--7------|
-----------------10--|--3-----------------|-----------------10--|
--0---0-0------------|-----------3--------|--0---0-0------------|


                                                                
--------------------|---------------------|--------------------|
-----0--------------|---------------------|--------------4--2--|
--------4--4--2-----|-----------9--7------|-----5--4-----------|
--3--------------5--|-----------------10--|--3-----------------|
--------------------|--0---0-0------------|-----------3--------|


                                                                
---------------------|--------------------|--------------------|
---------------------|-----0--------------|--------------------|
-----------9--7------|--------4--4--2-----|--------------------|
-----------------10--|--3--------------5--|--3--3--3--3--3--3--|
--0---0-0------------|--------------------|--------------------|


                                                               
--------------------|--------------------|--------------------|
--------------------|--------------------|--------------------|
--2--2--2--2--2--2--|--------------------|--------------------|
--------------------|--3--3--3--5--5--5--|--7--7--7--7--7--7--|
--------------------|--------------------|--------------------|


                                                               
--------------------|--------------------|--------------------|
--------------------|--------------------|--------------------|
--------------------|--2--2--2--2--2--2--|--------------------|
--3--3--3--3--3--3--|--------------------|--3--3--3--5--5--5--|
--------------------|--------------------|--------------------|


                                                               
--------------------|--------------------|--------------------|
--------------------|--------------------|--------------------|
--2--2--2--2--2--2--|--------------------|--------------------|
--------------------|-----------2--2--2--|--5--5--5--0--0--0--|
--------------------|--0--0--0-----------|--------------------|


                                                               
--------------------|--------------------|--------------------|
--------------------|--------------------|--------------------|
--------------------|--------------------|--------------------|
-----------2--2--2--|--5--5--5--0--0--0--|--------------------|
--0--0--0-----------|--------------------|--0--0--0--3--0--0--|


                                                               
--------------------|--------------------|--------------------|
--------------------|--------------------|--------------------|
--------------------|--------------------|--------------------|
--2--2--2--3--3--3--|--3--3--3--3--3--3--|--3--3--3--3--3--5--|
--------------------|--------------------|--------------------|


                                                                 
---------------------|--------------------|---------------------|
---------------------|--------------4--2--|---------------------|
-----------9--7------|-----5--4-----------|-----------9--7------|
-----------------10--|--3-----------------|-----------------10--|
--0---0-0------------|-----------3--------|--0---0-0------------|


                                                                
--------------------|---------------------|--------------------|
-----0--------------|---------------------|--------------4--2--|
--------4--4--2-----|-----------9--7------|-----5--4-----------|
--3--------------5--|-----------------10--|--3-----------------|
--------------------|--0---0-0------------|-----------3--------|


                                                               
---------------------|--------------------|-------------------|
---------------------|-----0--------------|-------------------|
-----------9--7------|--------4--4--2-----|-------------------|
-----------------10--|--3--------------5--|--7----7--7--7--9--|
--0---0-0------------|--------------------|-------------------|


                                                                      
--------------------|-----------------------|------------------------|
--------------------|-----------------------|------------------------|
--7-----------------|--7--------------------|------------------------|
-----10--9--7----7--|-----10--9--7--7-7-7-7-|-------------7--7-7-7-7-|
--------------------|-----------------------|--7--7-7-7-7------------|


                                                                 
-------------------|--------------------|-----------------------|
-------------------|--------------------|-----------------------|
-------------------|--7-----------------|--7--------------------|
--7----7--7--7--9--|-----10--9--7----7--|-----10--9--7--7-7-7-7-|
-------------------|--------------------|-----------------------|


                                                                    
------------------------|---------------------|--------------------|
------------------------|---------------------|--------------4--2--|
------------------------|-----------9--7------|-----5--4-----------|
-------------7--7-7-7-7-|-----------------10--|--3-----------------|
--7--7-7-7-7------------|--0---0-0------------|-----------3--------|


                                                                 
---------------------|--------------------|---------------------|
---------------------|-----0--------------|---------------------|
-----------9--7------|--------4--4--2-----|-----------9--7------|
-----------------10--|--3--------------5--|-----------------10--|
--0---0-0------------|--------------------|--0---0-0------------|


                                                                
--------------------|---------------------|--------------------|
--------------4--2--|---------------------|-----0--------------|
-----5--4-----------|-----------9--7------|--------4--4--2-----|
--3-----------------|-----------------10--|--3--------------5--|
-----------3--------|--0---0-0------------|--------------------|


                 
---------------||
---------------||
---------------||
---------------||
--0------------||





Comments


Popular In Flames tabs & chords
Artefacts Of The Black Rain Bass Tabs
Dialogue With The Stars 1 Bass Tabs
Swim 2 Bass Tabs
Zombie Bass Tabs
Another Day In Quicksand Tabs
Bullet Ride 2 Tabs
Dead End Intro Tabs
March To The Shore Tabs
Ordinary Story 1 Tabs
Take This Life 5 Tabs


Song lyrics



↑ Back to top | Tablatures and chords are parodies/interpretations of the original songs. You may use it for private study, scholarship, research or language learning purposes only
© 2014 AZChords.com Contact us | Privacy policy | DMCA | Add/correct tabs | Request tabs | Top 50 tabs