>
 >
F(R)Iend

F(R)Iend Guitar Tabs

In Flames - F(R)Iend chords, tabs, tablatures, lyrics

Guitar lessons | Add/correct | Request | Top 50 tabs Artists:  A B C D E F G H I J K L M N O P Q R S T U V W X Y Z 0-9

F(R)Iend Guitar Tabs – In Flames

CD, Sheet music, Poster

Do you like F(R)Iend? Share with your friends now
Tabs
Tuning: Drop A# (A# F A# D# G C)

Intro


 gtr.1
|-------------------------------------------------------------------------------|
|-------------------------------------------------------------------------------|
|-------------------------------------------------------------------------------|
|-------------------------------------------------------------------------------|
|-0-0-0--0-0-0--0-0-0--0-0-0--0-0-0--0-0-0--0-0-0--0-0-0--0-0-0--0-0-0--0-0-0---|
|-0-0-0--0-0-0--0-0-0--0-0-0--0-0-0--0-0-0--0-0-0--0-0-0--0-0-0--0-0-0--0-0-0---|
|Gtr.2                                                                          |
|-------------------------------------------------------------------------------|
|-------------------------------------------------------------------------------|
|-7---------------------------10-----------\9-------------6---------------------|
|-x----------------------------x------------x-------------x---------------------|
|-5----------------------------8-----------\7-------------4---------------------|
|-------------------------------------------------------------------------------|
|Gtr.3                                                                          |
|-------------------------------------------------------------------------------|
|-------------------------------------------------------------------------------|
|-7---------------------------10-----------\9-------------6---------------------|
|-x----------------------------x------------x-------------x---------------------|
|-5----------------------------8-----------\7-------------4---------------------|
|-------------------------------------------------------------------------------|



 gtr.1
|-------------------------------------------------------------------------------|
|-------------------------------------------------------------------------------|
|-------------------------------------------------------------------------------|
|-------------------------------------------------------------------------------|
|-0-0-0--0-0-0--0-0-0--0-0-0--0-0-0--0-0-0--0-0-0--0-0-0--0-0-0--0-0-0--0-0-0---|
|-0-0-0--0-0-0--0-0-0--0-0-0--0-0-0--0-0-0--0-0-0--0-0-0--0-0-0--0-0-0--0-0-0---|
|Gtr.2                                                                          |
|-------------------------------------------------------------------------------|
|-------------------------------------------------------------------------------|
|-7---------------------------10-----------/13------------\12------------\10----|
|-x----------------------------x-------------x--------------x-------------x-----|
|-5----------------------------8-----------/11------------\10------------\ 8----|
|-------------------------------------------------------------------------------|
|Gtr.3                                                                          |
|-------------------------------------------------------------------------------|
|-------------------------------------------------------------------------------|
|-7---------------------------10-----------/13------------\12------------\10----|
|-x----------------------------x-------------x--------------x-------------x-----|
|-5----------------------------8-----------/11------------\10------------\ 8----|
|-------------------------------------------------------------------------------|


 gtr.1
|-------------------------------------------------------------------------------|
|-------------------------------------------------------------------------------|
|-------------------------------------------------------------------------------|
|-------------------------------------------------------------------------------|
|-0-0-0--0-0-0--0-0-0--0-0-0--0-0-0--0-0-0--0-0-0--0-0-0--0-0-0--0-0-0--0-0-0---|
|-0-0-0--0-0-0--0-0-0--0-0-0--0-0-0--0-0-0--0-0-0--0-0-0--0-0-0--0-0-0--0-0-0---|
|Gtr.2                                                                          |
|-------------------------------------------------------------------------------|
|-------------------------------------------------------------------------------|
|-7---------------------------10-----------\9-------------6---------------------|
|-x----------------------------x------------x-------------x---------------------|
|-5----------------------------8-----------\7-------------4---------------------|
|-------------------------------------------------------------------------------|
|Gtr.3                                                                          |
|-------------------------------------------------------------------------------|
|-------------------------------------------------------------------------------|
|-10---------------------------14-----------\13------------9--------------------|
|--x----------------------------x------------x-------------x--------------------|
|--8---------------------------12-----------\11------------7--------------------|
|-------------------------------------------------------------------------------|


 gtr.1
|-------------------------------------------------------------------------------|
|-------------------------------------------------------------------------------|
|-------------------------------------------------------------------------------|
|-------------------------------------------------------------------------------|
|-0-0-0--0-0-0--0-0-0--0-0-0--0-0-0--0-0-0--0-0-0--0-0-0--0-0-0--0-0-0--0-0-0---|
|-0-0-0--0-0-0--0-0-0--0-0-0--0-0-0--0-0-0--0-0-0--0-0-0--0-0-0--0-0-0--0-0-0---|
|Gtr.2                                                                          |
|-------------------------------------------------------------------------------|
|-------------------------------------------------------------------------------|
|-7---------------------------10-----------/13------------\12------------\10----|
|-x----------------------------x-------------x--------------x-------------x-----|
|-5----------------------------8-----------/11------------\10------------\ 8----|
|-------------------------------------------------------------------------------|
|Gtr.3                                                                          |
|-------------------------------------------------------------------------------|
|-------------------------------------------------------------------------------|
|-10---------------------------14-----------/17------------\16------------\14---|
|--x----------------------------x-------------x--------------x-------------x----|
|--8---------------------------12-----------/15------------\14------------\12---|
|-------------------------------------------------------------------------------|


 Gtr.1 & 3
|---------|
|---------|
|---------|
|-0~------|
|-0~------|
|-0~------|
|Gtr.2    |
|---------|
|---------|
|-7-------|
|-x-------|
|-5-------|
|---------|


Verse 

 gtr.1
|--------------------------------------|
|--------------------------------------|
|--------------------------------------|
|----------------3---------------------|
|----5--0-0-0h1----0--5--0-0-0-0-0-0-0-|
|-------0-0--------------0-0-0-0-0-0-0-|
|gtr.2  pm.              pm........... |
|--------------------------------------|
|--------------------------------------|
|--------------------------------------|
|----------------3---------------------|
|----5--0-0-0h1----0--5--0-0-0-0-0-0-0-|
|-------0-0--------------0-0-0-0-0-0-0-|
        pm.              pm...........


 gtr.1
|---------------------------------------|
|---------------------------------------|
|---------------------------------------|
|-----------------3---------------------|
|----5--0-0--0h1----0--5--------8-8-7-7-|
|-------0-0---------------0-0-0-8-8-7-7-|
|gtr.2  pm...             pm...         |
|---------------------------------------|
|---------------------------------------|
|---------------------------------------|
|-----------------3---------------------|
|----5--0-0--0h1----0--5--------8-8-7-7-|
|-------0-0---------------0-0-0-8-8-7-7-|
        pm...             pm...


 gtr.1
|--------------------------------------|
|--------------------------------------|
|--------------------------------------|
|----------------3---------------------|
|----5--0-0-0h1----0--5--0-0-0-0-0-0-0-|
|-------0-0--------------0-0-0-0-0-0-0-|
|gtr.2  pm.              pm........... |
|--------------------------------------|
|--------------------------------------|
|--------------------------------------|
|----------------3---------------------|
|----5--0-0-0h1----0--5--0-0-0-0-0-0-0-|
|-------0-0--------------0-0-0-0-0-0-0-|

 gtr.1
|---------------------------------------|
|---------------------------------------|
|---------------------------------------|
|-----------------3---------------------|
|----5--0-0--0h1----0--5--------8-8-7-7-|
|-------0-0---------------0-0-0-8-8-7-7-|
|gtr.2  pm...             pm...         |
|---------------------------------------|
|---------------------------------------|
|---------------------------------------|
|-----------------3---------------------|
|----5--0-0--0h1----0--5--------8-8-7-7-|
|-------0-0---------------0-0-0-8-8-7-7-|
        pm...             pm...


(Repeat Again)


Pre-Chorus


 gtr.1
|-----------------------------------------|
|-----------------------------------------|
|-----------------------------------------|
|-----------3-2h3p2---2-------------------|
|-------0-0---------3-----0-0-3/5-0-0-5/7-|
|-------0-0---------------0-0-3/5-0-0-5/7-|
|gtr.2  pm.               pm.     pm.     |
|-----------------------------------------|
|-----------------------------------------|
|-----------------------------------------|
|-----------7-5h7p5---5-------------------|
|-------0-0---------7-----0-0-3/5-0-0-5/7-|
|-------0-0---------------0-0-3/5-0-0-5/7-|
        pm.               pm.     pm. 

(Reapeat Again)


Verse 2



 gtr.1
|--------------------------------------|
|--------------------------------------|
|--------------------------------------|
|----------------3---------------------|
|----5--0-0-0h1----0--5--0-0-0-0-0-0-0-|
|-------0-0--------------0-0-0-0-0-0-0-|
|gtr.2  pm.              pm........... |
|--------------------------------------|
|--------------------------------------|
|--------------------------------------|
|----------------3---------------------|
|----5--0-0-0h1----0--5--0-0-0-0-0-0-0-|
|-------0-0--------------0-0-0-0-0-0-0-|
        pm.              pm...........


 gtr.1
|---------------------------------------|
|---------------------------------------|
|---------------------------------------|
|-----------------3---------------------|
|----5--0-0--0h1----0--5--------8-8-7-7-|
|-------0-0---------------0-0-0-8-8-7-7-|
|gtr.2  pm...             pm...         |
|---------------------------------------|
|---------------------------------------|
|---------------------------------------|
|-----------------3---------------------|
|----5--0-0--0h1----0--5--------8-8-7-7-|
|-------0-0---------------0-0-0-8-8-7-7-|
        pm...             pm...


 gtr.1
|--------------------------------------|
|--------------------------------------|
|--------------------------------------|
|----------------3---------------------|
|----5*-----0h1-----0--5-0-0-0-0-0-0-0-|
|---PH-------------------0-0-0-0-0-0-0-|
|gtr.2                   pm........... |
|--------------------------------------|
|--------------------------------------|
|--------------------------------------|
|----------------3---------------------|
|-----------0h1-----0--5-0-0-0-0-0-0-0-|
|------------------------0-0-0-0-0-0-0-|
                         pm........... 


 gtr.1
|---------------------------------------|
|---------------------------------------|
|---------------------------------------|
|-----------------3---------------------|
|----5--0-0--0h1----0--5--------8-8-7-7-|
|-------0-0---------------0-0-0-8-8-7-7-|
|gtr.2  pm...             pm...         |
|---------------------------------------|
|---------------------------------------|
|---------------------------------------|
|-----------------3---------------------|
|----5--0-0--0h1----0--5--------8-8-7-7-|
|-------0-0---------------0-0-0-8-8-7-7-|
        pm...             pm...


Chorus - Both Guitars

|---------------------------------------------------------------|
|---------------------------------------------------------------|
|---------------------------------------------------------------|
|-------------------------5/7-----------------------------------|
|-0-0-0-0--6-6--0-0--6-5--3/5--0-0-0-0--6-6--0-0--6-5--3--1--1--|
|-0-0-0-0--6-6--0-0--6-5-------0-0-0-0--6-6--0-0--6-5--3--1--1--|
  pm.....       pm.            pm.....       pm.          pm..

|-------------------------------------|
|-------------------------------------|
|-------------------------------------|
|--------------------------------5/7--|
|-0-0-0--0-0-0--6-6--0-0-0--6-5--3/5--|
|-0-0-0--0-0-0--6-6--0-0-0--6-5-------|

|----------------------------------------|
|----------------------------------------|
|----------------------------------------|
|----------------------------------------|
|-0-0-0--0-0-0--6-6--0-0-0--6-5--3--1--1-|
|-0-0-0--0-0-0--6-6--0-0-0--6-5--3--1--1-|
                                    pm..

|-------------------------------------|
|-------------------------------------|
|-------------------------------------|
|--------------------------------5/7--|
|-0-0-0--0-0-0--6-6--0-0-0--6-5--3/5--|
|-0-0-0--0-0-0--6-6--0-0-0--6-5-------|

|----------------------------------------|
|----------------------------------------|
|----------------------------------------|
|----------------------------------------|
|-0-0-0--0-0-0--6-6--0-0-0--6-5--3--1--1-|
|-0-0-0--0-0-0--6-6--0-0-0--6-5--3--1--1-|
                                    pm..

After Chorus


 gtr.1
|-----------------------------------------|
|-----------------------------------------|
|-----------------------------------------|
|-----------3-2h3p2---2-------------------|
|-------0-0---------3-----0-0-3/5-0-0-5/7-|
|-------0-0---------------0-0-3/5-0-0-5/7-|
|gtr.2  pm.               pm.     pm.     |
|-----------------------------------------|
|-----------------------------------------|
|-----------------------------------------|
|-----------7-5h7p5---5-------------------|
|-------0-0---------7-----0-0-3/5-0-0-5/7-|
|-------0-0---------------0-0-3/5-0-0-5/7-|
        pm.               pm.     pm. 

(Reapeat Again)


Verse 3 - Same as verse 1
 
Chorus 2

|-------------------------------------|
|-------------------------------------|
|-------------------------------------|
|--------------------------------5/7--|
|-0-0-0--0-0-0--6-6--0-0-0--6-5--3/5--|
|-0-0-0--0-0-0--6-6--0-0-0--6-5-------|

|----------------------------------------|
|----------------------------------------|
|----------------------------------------|
|----------------------------------------|
|-0-0-0--0-0-0--6-6--0-0-0--6-5--3--1--1-|
|-0-0-0--0-0-0--6-6--0-0-0--6-5--3--1--1-|
                                    pm..

|-------------------------------------|
|-------------------------------------|
|-------------------------------------|
|--------------------------------5/7--|
|-0-0-0--0-0-0--6-6--0-0-0--6-5--3/5--|
|-0-0-0--0-0-0--6-6--0-0-0--6-5-------|

|----------------------------------------|
|----------------------------------------|
|----------------------------------------|
|----------------------------------------|
|-0-0-0--0-0-0--6-6--0-0-0--6-5--3--1--1-|
|-0-0-0--0-0-0--6-6--0-0-0--6-5--3--1--1-|
                                    pm..

|----|
|----|
|----|
|-0~-|
|-0~-|
|-0~-|



Interlude

 Gtr.1
|--------------------------------------------------------------------|
|--------------------------------------------------------------------|
|--------------------------------------------------------------------|
|--------------------------------------------------------------------|
|--------------------------------------------------------------------|
|-0--0--0--0--0-0-0--0--0-0-0--0--0-0-0--0--0--0-0-0--0--0-0-0--0-0--|
|gtr.2                                                               |
|--------------------------------------------------------------------|
|--------------------------------------------------------------------|
|--------------------------------------------------------------------|
|-0~-----------------------------------------------------------------|
|-0~-----------------------------------------------------------------|
|-0~-----------------------------------------------------------------|


 Gtr.1
|--------------------------------------------------------------------|
|--------------------------------------------------------------------|
|--------------------------------------------------------------------|
|--------------------------------------------------------------------|
|--------------------------------------------------------------------|
|-0--0--0--0--0-0-0--0--0-0-0--0--0-0-0--0--0--0-0-0--0--0-0-0--0-0--|
|gtr.2                                                               |
|--------------------------------------------------------------------|
|--------------------------------------------------------------------|
|--------------------------------------------------------------------|
|-0~-----------------------------------------------------------------|
|-0~-----------------------------------------------------------------|
|-0~-----------------------------------------------------------------|


 Gtr.1
|----------------------------------------------------------------------|
|----------------------------------------------------------------------|
|----------------------------------------------------------------------|
|----------------------------------------------------------------------|
|-0-0-0-0-0-0-0-000-0-0-0-000-0-0-0--0-0-0-0-0-0-0-000-0-0-0-000-0-0-0-|
|-0-0-0-0-0-0-0-000-0-0-0-000-0-0-0--0-0-0-0-0-0-0-000-0-0-0-000-0-0-0-|
  pm..................................................................

|---------------------------------------------------|
|---------------------------------------------------|
|---------------------------------------------------|
|---------------------------------------------------|
|-5-5-5-5-5-5-555-5-5-5-5--3-3-3-3-3-3/7-7-7-7-7-7--|
|-5-5-5-5-5-5-555-5-5-5-5--3-3-3-3-3-3/7-7-7-7-7-7--| (Reapeat Again)



Solo

 gtr.1
|---------------------------------------------------------------------|
|---------------------------------------------------------------------|
|---------------------------------------------------------------------|
|------------9---10---------------------8-8-8-8-8-8-----5-5-5-5-5-5---|
|-7---7---7----------7---7---7---10-----6-6-6-6-6-6-----3-3-3-3-3-3---|
|---------------------------------------------------------------------|
|gtr.3                                                                |
|---------------------------------------------------------------------|
|-----------12-10-13----------10----12--12-10-8---------10-8-7--------|
|----11-12--------------11-12----12-------------12-10-9--------11-9-8-|
|-14-----------------14-----------------------------------------------|
|---------------------------------------------------------------------|
|---------------------------------------------------------------------|


 gtr.1
|------------------------------------------------------------------------|
|------------------------------------------------------------------------|
|------------------------------------------------------------------------|
|------------9---10----------7--9-------5-5-5-5-5-5-------8-8-8-8-8-8----|
|-7---7---7----------7---7--------------3-3-3-3-3-3-------6-6-6-6-6-6----|
|------------------------------------------------------------------------|
|gtr.3                                                                   |
|------------------------------------------------------------------------|
|-----------12-10-13----------10----12--15-13-12----------12-10-8--------|
|----11-12--------------11-12----12--------------14-12-11---------11-9-8-|
|-14-----------------14--------------------------------------------------|
|------------------------------------------------------------------------|
|------------------------------------------------------------------------|


 gtr.1
|---------------------------------------------------------------------|
|---------------------------------------------------------------------|
|---------------------------------------------------------------------|
|------------9---10----------7--9-------8-8-8-8-8-8-----5-5-5-5-5-5---|
|-7---7---7----------7---7--------------6-6-6-6-6-6-----3-3-3-3-3-3---|
|---------------------------------------------------------------------|
|gtr.2                                                                |
|---------------------------------------------------------------------|
|---------------------------------------------------------------------|
|---------------------------------------------------------------------|
|------------7---9-----------4--5-------8-8-8-8-8-8-----5-5-5-5-5-5---|
|-7---7---7----------7---7--------------6-6-6-6-6-6-----3-3-3-3-3-3---|
|---------------------------------------------------------------------|
|gtr.3                                                                |
|---------------------------------------------------------------------|
|-----------12-10-13----------10----12--12-10-8---------10-8-7--------|
|----11-12--------------11-12----12-------------12-10-9--------11-9-8-|
|-14-----------------14-----------------------------------------------|
|---------------------------------------------------------------------|
|---------------------------------------------------------------------|


 gtr.1
|------------------------------------------------------------------------|
|------------------------------------------------------------------------|
|------------------------------------------------------------------------|
|------------9---10----------7--9-------5-5-5-5-5-5-------8-8-8-8-8-8----|
|-7---7---7----------7---7--------------3-3-3-3-3-3-------6-6-6-6-6-6----|
|------------------------------------------------------------------------|
|gtr.2                                                                   |
|------------------------------------------------------------------------|
|------------------------------------------------------------------------|
|------------------------------------------------------------------------|
|------------7---9-----------4--5-------8-8-8-8-8-8--------5-5-5-5-5-5---|
|-7---7---7----------7---7--------------6-6-6-6-6-6--------3-3-3-3-3-3---|
|------------------------------------------------------------------------|
|gtr.3                                                                   |
|------------------------------------------------------------------------|
|-----------12-10-13----------10----12--15-13-12----------12-10-8--------|
|----11-12--------------11-12----12--------------14-12-11---------11-9-8-|
|-14-----------------14--------------------------------------------------|
|------------------------------------------------------------------------|
|------------------------------------------------------------------------|

Back to Interlude

Then Back to Intro

Chorus 3 - same as chorus 2


Outro

 gtr.1
|-----------------------------------------|
|-----------------------------------------|
|-----------------------------------------|
|-----------3-2h3p2---2-------------------|
|-------0-0---------3-----0-0-3/5-0-0-5/7-|
|-------0-0---------------0-0-3/5-0-0-5/7-|
|gtr.2  pm.               pm.     pm.     |
|-----------------------------------------|
|-----------------------------------------|
|-----------------------------------------|
|-----------7-5h7p5---5-------------------|
|-------0-0---------7-----0-0-3/5-0-0-5/7-|
|-------0-0---------------0-0-3/5-0-0-5/7-|
        pm.               pm.     pm. 


 gtr.1
|-----------------------------------------|
|-----------------------------------------|
|-----------------------------------------|
|-----------3-2h3p2---2-------------------|
|-------0-0---------3-----0-0-3/5-0-0-5/7-|
|-------0-0---------------0-0-3/5-0-0-5/7-|
|gtr.2  pm.               pm.     pm.     |
|-----------------------------------------|
|-----------------------------------------|
|-----------------------------------------|
|-----------7-5h7p5---5-------------------|
|-------0-0---------7-----0-0-3/5-0-0-5/7-|
|-------0-0---------------0-0-3/5-0-0-5/7-|
        pm.               pm.     pm. 

 gtr.1
|-----------------------------------|
|-----------------------------------|
|-----------------------------------|
|-----------3-2h3p2---2-------------|
|-------0-0---------3-----0-0--0-0--|
|-------0-0---------------0-0--0-0--|
|gtr.2  pm.               pm.  pm.  |
|-----------------------------------|
|-----------------------------------|
|-----------------------------------|
|-----------7-5h7p5---5-------------|
|-------0-0---------7-----0-0--0-0--|
|-------0-0---------------0-0--0-0--|
        pm.               pm.  pm.





Comments


Popular In Flames tabs & chords
Behinged Space Bass Tabs
Clad In Shadows Bass Tabs
Clayman 1 Bass Tabs
Cloud Connected Bass Tabs
Jotun 4 Bass Tabs
Suburban Me Bass Tabs
The Jester Race Bass Tabs
Zombie 2 Bass Tabs
Only For The Weak 1 Chords
Scream Tabs


Song lyrics



↑ Back to top | Tablatures and chords are parodies/interpretations of the original songs. You may use it for private study, scholarship, research or language learning purposes only
© 2014 AZChords.com Contact us | Privacy policy | DMCA | Add/correct tabs | Request tabs | Top 50 tabs