» » »

In Flames, Free Fall Bass tabs (ver.1)

Artists:  A B C D E F G H I J K L M N O P Q R S T U V W X Y Z # 

Free Fall Bass tabs (ver.1)

In Flames Tabs
 Rating:
4/5 (4 votes)
Free Fall lessons Tabs too difficult? Try these video lessons and learn fast
1
                free fall
                by
	in flames
drop c for tuning <('-'<)
sunday june 29 2003 


Intro 0:00
|---------|---------|---------|---------|
|---------|---------|---------|---------|
|---------|---------|---------|---------|
|---------|---------|---------|---------|

Riff A.1 0:09
|-----------------|-----------------|  
|-----------------|-----------------| 
|-----------------|-----------------|  
|-7-7-7-7-5-5-5-5-|-7-7-7-7-5-5-5-5-|
                                      X 2
|-----------------|-----------------|  
|-----------------|-----------------| 
|-----------------|-----------------|
|-3-3-3-3-5-5-5-5-|-2-2-2-2-5-5-5-5-|


Riff B.1 0:27
|--------------------|
|--------------------| X 6
|--------------8-8-7-|
|-7-7-7-7-7-7-7------|

Riff C.1 0:57
|-----------------|-----------------|
|-----------------|-----------------|
|-----------------|-----------------|
|-2-2-2-4-2-2-2-0-|-2-2-2-2-5-5-5-4-|

|-----------------|-----------------|
|-----------------|-----------------|
|-----------------|-----------------|
|-2-2-2-4-2-2-2-0-|-2-2-2-0---------|

Riff B.1 1:05 ---> X 4
Riff C.1 1:22
Riff A.1 1:32 ---> X 2            
Riff B.1 1:50 ---> X 4
Riff A.1 2:07 ---> X 2

Fill 1 2:24
|-------------|-------------|--------------|
|-------------|-------------|--------------| x 2
|-------------|-------------|--------------| 
|-5-5-5-7-7-7-|-9-9-9-7-7-7-|-9-7-9-10-9-7-|

Riff A.1 2:48

RIFF A.1 FADES OUT OVER 8 REPETITIONS 

THATS ALL FOR THIS THIS SONG!
THANKS FOR CHECKING IT OUT 
PLEASE GIVE IT A RATING
            
Submit corrections

comments powered by Disqus
↑ Back to top | In Flames Bass for Free Fall. Lyrics for acoustic guitar and electric guitar. 1 Tablatures and chords are parodies/interpretations of the original songs. You may use it for private study, scholarship, research or language learning purposes only