>
 >
Everlost (Part 2)

Everlost (Part 2) Guitar Tabs

In Flames - Everlost (Part 2) chords, tabs, tablatures, lyrics

Guitar lessons | Add/correct | Request | Top 50 tabs Artists:  A B C D E F G H I J K L M N O P Q R S T U V W X Y Z 0-9

Everlost (Part 2) Guitar Tabs – In Flames

CD, Sheet music, Poster

Do you like Everlost (Part 2)? Share with your friends now
Tabs
.  - palm mute                          /  - slide up to
\  - slide down to                      ~  - vibrato
"  - tremelo picking                    () - ghost note
p  - pull off                           h  - hammer-on


TUNING: D tuning

Riff A
|---|------------------------------------|
|---|------------------------------------|
|---|------------------------------------| GTR I
|-2-|---2-5-4-------4/7-9-10-9-----------|
|---|---------5-2-5------------10-9-7-5--|
|---|-0----------------------------------|
|                                        |
|---|------------------------------------|
|---|------------------------------------|
|---|------------------------------------| GTR II
|-2-|---2-5-4-------4/7-9-10-9-----------|
|---|---------5-2-5---0--------10-9-7-5--|
|---|-0-------------------------0--------|


Riff B
|----------------------------------------|
|----------------------------------------|
|----4-5-4-------4/7-9-10-9--------------| GTR I
|------7---5---5------------10-9-7-------|
|--0---------7---------------------10----|
|----------------------------------------|
|                                        |
|-----------------------5----------------|
|------5-----------6-8----8--5-----------|
|--5-7---7-4---4-7-------------7-5--4----| GTR II
|--7---------5-----0---------------------|
|--0-------------------------0-----------|
|----------------------------------------|


|----------------------------------------|
|----------------------------------------|
|----4-5-4-------4/7-9-10-9--------------| GTR I
|----------5---5------------10-9-7-------|
|--0---------7---------------------10----|
|----------------------------------------|
|                                        |
|-----------------------5----------------|
|------5-----------6-8----8--5-----------|
|--5-7---7-4---4-7-------------7-5--4----| GTR II
|------------5-----0---------------------|
|--0-------------------------0-----------|
|----------------------------------------|



              * no note plays here (silence)
Riff C
|-------0-----*-----0-----0-----0-----1-----0-------|
|-----1---1-----1-----1-3---1-----1-----1-----1-----|
|---2-------2-----2-----------2-----2-----2-----2---| GTR I
|---------------------------------------------------|
|-0-------------------------------------------------|
|---------------------------------------------------|
|                                                   |
|---------------------------------------------------|
|-------1-----3-----1---0-1-----1-----3-----1-------|
|-----2---2-----2-----------2-----2-----2-----2-----| GTR II
|---2-------2-----2---2-------2-----2-----2-----2---|
|-0---------------0-------0---------0---------------|
|---------------------------------------------------|



|---------------------------------------------------|
|--------------------0-----------1------------1-----|
|-------2----------------------2---2---------2--2---| GTR I
|-----3---3--------0----0-----2-------2-----2-------|
|---3-------3----2--------2-0--------------0--------|
|-1-----------3-----------------------------------3-|
|                                                   |
|----------hp---------------------------------------|
|-5~----6-565-3--(3)\-------------h-p---------------|
|---------------------5-4---5----4-5-4--------------| GTR II
|--------------------------------------5-5/7--------|
|---------------------------------------------------|
|---------------------------------------------------|
|                                                   |
|---------------------------------------------------|
|---------------------------------h-p---------------|
|-5~----7-5---4------------------4-5-4--------------| GTR III
|---------------------7-5-5/7----------5-5/7--------|
|------------------------------------------*sounds like he played a small
|-------------------------------------------fuckup here, but who cares.



                                              *no notes here either
|-0-----0-----1-----0-----0-----0-----1-----*-------|
|---1-----1-----1-----1-3---1-----1-----1---*-*-3---|
|-----2-----2-----2-----------2-----2-----2---*-----| GTR I
|---------------------------------------------------|
|---------------------------------------------------|
|---------------------------------------------------|
|                                                   |
|---------------------------------------------------|
|-------1-----3-----1---0-1-----1-----3-----1---0---|
|-----2---2-----2-----------2-----2-----2-----------| GTR II
|---2-------2-----2---2-------2-----2-----2---2-----|
|-0-------------------------------------------------|
|---------------------------------------------------|



                  *muted note             *muted notes
|---------------------------------------------------|
|-------------------------------1-----------1-------|
|-------2-----------0---------2---2-------2---2-----| GTR I
|-----3---3-------0---0-----2-------2---2-*---------|
|---3-------3---2-*-----2-0-----------0-*-----------|
|-1-----------3---------------------------------0---|
|                                                   |
|---------------------------------------------------|
|/5~------6-5-3-------------------------------------|
|---------------------5-4---5-----4-----------------| GTR II
|--------------------------------------5-5/7--------|
|---------------------------------------------------|
|---------------------------------------------------|
|                                                   |
|---------------------------------------------------|
|---------------------------------h-p---------------|
|-5-------7-5-4-------5-4--------4-5-4--------------| GTR III
|-7-------8-7-5-------7-5-5/7----------5-5/7--------|
|---------------------------------------------------|
|---------------------------------------------------|



                                          *muted note
|---------------------------------------------------|
|-------------------------------1-----------1-------|
|-------2-----------0---------2---2-------2---2-----| GTR I
|-----3---3-------0---0-----2-------2---2-*---------|
|---3-------3---2-------2-0-----------0-------------|
|-1-----------3---------------------------------0---|
|                                                   |
|---------------------------------------------------|
|-5-------6-5-3-------------------------------------|
|---------------------5-4-5-------4-----------------| GTR II
|-----------------------------------5-7-------------|
|---------------------------------------------------|
|---------------------------------------------------|
|                                                   |
|---------------------------------------------------|
|---------------------------------------------------|
|---------------------------------------------------| GTR III
|-----should be similar to gtr3 on above riff-------|
|-7-------8-7-5-----------3-------------------------|
|-8-----------7-------8-7-5-------7-3/5-------------|



|---------------------------------------------------|
|-------------------------------1-------------------|
|-------2-----------0---------2-----2-----2-----2---| GTR I
|-----3---3-------0---0-----2-----2-----2-----2-----|
|---3-------3---2-------0-0-----2-----3-----2-------|
|-1-----------3-------------------------------------|
|                                                   |
|---------------------------------------------------|
|---------------------------------------------------|
|-------2-----------0---------5-----5-----5-----5---| GTR II
|-----3---3-------0---0-----5-----5-----5-----5-----|
|---3-------3---2-------0-3-----5-----7-----5-------|
|-1-----------3-------------------------------------|


|---------------------------------------------------|
|---------------------------------------------------|
|-------2-----------0---------2-----2-----2-----2---| GTR I
|-----3---3-------0---0-----2-----2-----2-----2-----|
|---3-------3---2-------0-0-----2-----3-----2-------|
|-1-----------3-------------------------------------|
|                                                   |
|---------------------------------------------------|
|---------------------------------------------------|
|-------2-----------0---------5-----5-----5-----5---| GTR II
|-----3---3-------0---0-----5-----5-----5-----5-----|
|---3-------3---2-------0-3-----5-----7-----5-------|
|-1-----------3-------------------------------------|
                *these gtrs may be switched, cause I don't hear the
                second one at all through the left speaker.




Riff D

|-------1-----------1-----------0------------0------|
|-----3---3-------3---3-----------3------------3----|
|---2---2---2---2-------0-----0-----0-----0------0--|
|-0-----------0-------------2-----------2-----------|
|-------------------------3-----------3-------------|
|---------------------------------------------------|

|--------0-----------0-----------1-----------1------|
|----------1-----------1-------3---3-------3---3----|
|------2-----0-----2-----0---2-------2---2-------2--|
|----2-----------2---------0-----------0------------|
|--0-----------0------------------------------------|
|---------------------------------------------------|

|-------1-----------1-----------0------------0------|
|-----3---3-------3---3-----------3------------3----|
|---2-------2---2-------------0-----0-----0------0--|
|-0-----------0---------0---2-----------2-----------|
|-------------------------3-----------3-------------|
|---------------------------------------------------|

|--------0-----------0-----------1-----------1------|
|----------1-----------1-------3---3-------3---3----|
|------2-----0-----2-----0---2-------2---2----------|
|----2-----------2---------0-----------0------------|
|--0-----------0------------------------------------|
|------------------------------------------------0--|



Riff E
|-------3-----------------------0-------------------|
|-------3-----------------------1-----------1-------|
|-------------------0---------2---2-------2---2-----|
|-----3--(3)------0---0-----2-------2---2-----------|
|---3-----*-3---2-------2-0-----------0-------------|
|-1-----------3---------------------------------0---|
|         *note may/maynot be there                 |
|---------------------------------------------------|
|-------------------------------1-----------1-------|
|-------2-----------0---------2---2-------2---2-----|
|-----3---3-------0---0-----2-------2---2-------2---|
|---3-------3---2-------2-0-----------0-------------|
|-1-----------3-------------------------------------|



|---------------------------------------------------|
|-------------------------------1-----------1-------|
|-------2-----------0---------2---2-------2---2-----|
|-----3---3-------0---0-----2-------2---2-------2---|
|---3-------3---2-------2-0-----------0-------------|
|-1-----------3-------------------------------------|
|                                                   |
|---------------------------------------------------|
|-------------------------------1-----------1-------|
|-------2-----------0---------2---2-------2---2-----|
|-----3---3-------0---0-----2-------2---2-------2---|
|---3-------3---2-------2-0-----------0-------------|
|-1-----------3-------------------------------------|


Riff Similar To D Gets Played Here
Riff Similar To E Gets Played Here
Solo comes in


Volume Swells During The Beginning of The Solo
|-5-------------------7------------------8---------|
|-6-------------------8------------------10--------|
|--------------------------------------------------|
|-3-------------------5------------------7---------|
|--------------------------------------------------|
|--------------------------------------------------|

SOLO

|--------------------------------------------------|
|-10/12-10~----8/10-8-8/10--10~----10~-\\\---------|
|--------------------------------------------------|
|--------------------------------------------------|
|--------------------------------------------------|
|--------------------------------------------------|

|---------------------------------------------------------------------------|
|-13/15~-13-10/12~-10~--12p10-----------------------------------------------|
|-----------------------------12p9----------9-------------------------------|
|----------------------------------12p10h12---10h12p10------------*----------|
|------------------------------------------------------12-10-12~-12/15~--\\-|
|---------------------------------------------------------------------------|
either a bend or a slide, not sure

|-------------10-12-12bh~-----------------------------------------------
|----10-12-13--------------13-12-10-------------------------------------
|-12--------------------------------12-10-9------------*--9-10-12-10-9--
|-------------------------------------------12-10-9-10-12---------------
|-----------------------------------------------------------------------
|-----------------------------------------------------------------------
                                                       * very slight pause

                                               sweep
----------------------------------------------|-----------------------------|
----------------------------------------------|------------------------10---|
----------------------------------------------|---9-9-12p9-12-12-12~~~------|
--12-10-9-------------------------------------|-10--------------------------|
----------12-10-8------------------10-12-12~--|-----------------------------|
------------------12-10-8~-10~--12------------|-----------------------------|

  *                          fade out
|-12-----------------------|------------------------------------------------|
|-15bf~-13p10-10-10~-\\\\--|-13bf~---10----10-------------------------------|
|--------------------------|------------12----------------------------------|
|--------------------------|------------------12bf-10-etc.. I can't hear-it-|
|--------------------------|----------------------------on my tape anymore--|
|--------------------------|------------------------------------------------|
* as soon as you bend the 15, DON'T let the 12 ring out





Comments


Popular In Flames tabs & chords
The Jester Race 1 Bass Tabs
Only For The Weak Chords
Man Made God Drum Tabs
Cloud Connected Tabs
Dawn Of A New Day Tabs
Dawn Of A New Day 1 Tabs
Reflect The Storm 2 Tabs
Saburban Me Tabs
Scorn Tabs
Trigger Ukulele


Song lyrics



↑ Back to top | Tablatures and chords are parodies/interpretations of the original songs. You may use it for private study, scholarship, research or language learning purposes only
© 2014 AZChords.com Contact us | Privacy policy | DMCA | Add/correct tabs | Request tabs | Top 50 tabs