>
 >
Dead Eternity

Dead Eternity Bass Tabs

In Flames - Dead Eternity chords, tabs, tablatures, lyrics

Guitar lessons | Add/correct | Request | Top 50 tabs Artists:  A B C D E F G H I J K L M N O P Q R S T U V W X Y Z 0-9

Dead Eternity Bass Tabs – In Flames

CD, Sheet music, Poster

Do you like Dead Eternity? Share with your friends now
Bass TabsBass Tabs v2TabsTabs v2

              	   IN FLAMES - DEAD ETERNITY (BASS)
                    From the Album THE JESTER RACE
		     Copyright 1996 NUCLEAR BLAST
                     Version 1.0 - DECEMBER 2001


For Questions, Comments, Newest Version, or Corrections contact

 .  - palm mute          /  - slide up to
 \  - slide down to      ~  - vibrato
 h  - hammer on          b  - bend
 p  - pull off            Suffixes for bend
                          ph - pinch harmonic
                           f - full bend    h - half bend
*  - see comment           r - release      t - tap bend
X  - percussion mute       ~ - vibrato bend
@  - slight palm mute     () - ghost note, sustained note

Tune Bass to C (C, F, A#, D#)

Thanks to DUFFMAN who's basstab filled in a bunch of holes & gaps that I couldn't tab.

Intro (0:00)
|---------------------------|
|---------------------------|
|--55555555-1111-3333-------|
|---------------------------| x4

Intro II (0:12)								  (0:34)
|--------------------------------------------------------------------|    |----|
|--------------------------------------------------------------------|    |----|
|------------------5-55-55-3-33-33-----------------5-55-55-----------|    |----|
|--3-33-33-3-33-33-----------------3-33-33-3-33-33---------3-3-1-11--| x2 |-0~-|
								 ..

Bass "Solo" (0:44)						    (0:51)
|-------------------------------------------------------------------|--------|
|-----2~----2~---------2~----2~---------2~----2~---------2~----2~---|--------|
|---2~----2~--2~-----2~----2~--2~-----2~----2~--2~-----2~----2~--2~-|-(REST)-|
|-0~----0~------0~-0~----0~------0~-0~----0~------0~-0~----0~-------|--------|

Guitar Solo I (0:52)
|----------------------------4-2-4-----------|
|-5~----5-4-5-4~--0-0~---2~--------4-2-2~----|
|--------------------------------------------|
|--------------------------------------------| x2

Fast Part (1:09)
|-----------------------------------------------------------------------|
|-----------------------------------------------------------------------|
|------------------2222222222222222-33333333-55555555-22222222-00000000-|
|-0000000000000000------------------------------------------------------| x4

Fast Part End (1:38)
|---------------------------|
|---------------------------|
|-----2---------------------|
|--0-----3-3-3-2-0------0~--|
                 .

Verse (1:41)
|--------------------------------------------------|
|--------------------------------------------------|
|------2h3-3-------3h5-5---------------3-33/5-5-5--|
|--0~----------0~----------0-0-2h3-3---------------| x2

Chorus (1:55)
|------------------------|
|------------------------|
|-----------3-3--5-5-5---|
|--0--0-0-0--------------| x4
      . . .

Verse x2 (2:08)
Chorus x4 (2:22)
Fast part x2 (2:36)
Fast part end (2:50)
Verse x2 (2:52)

Slow Part (3:06)
|-------------------------------------------4-6-6-4h6p4----4-|
|-------2/4-4~-------2/7-6~-----2/4-4~---7---------------7---|
|------------------------------------------------------------|
|-2-2-----------2-2----------2-2-----------------------------| x2

Solo Part (3:20) (Original bass line is just open C-string all the time)
|-------------------------------------------------------------------|
|----2---5---4-----------2-------4---2---5---4-----------2----------|
|----------------5---3-------5-------------------5---3-------5---3--|
|--0---0---0---0---0---0---0---0---0---0---0---0---0---0---0---0----| x2

Guitar Solo I (3:34)
|------------------------------------------------------------------------|
|------------------------------------------------------------------------|
|------------------------------------------------------------------------|
|--0--0-00-0--0-00-0--0-00--3--3--3----0--0-00-0--0-00-0--0-00--1--1--1--|

Solo Part x2 (3:48)

Drums Part (4:01)
|-----------------------------------------|
|-----------------------------------------|
|-----------------------------------------|
|--0-0-000-0-0-0---0-0-000-0-0-0-----2-3--|
	       .	       .     . .

Guitar Solo II & End (4:10) (That is the 10th fret, not 1 and 0. And listen to the rhythm!)
|-------------------------------------------------------------|
|-------------------------------------------------------------|
|-------------------------------------------------------------|
|-0-00-00-00-00-00-00-00-010-1010-1010-1010-1010-1010-1010-10-| x2

(4:27)
|-----------------------------------|
|-----------------------------------|
|-----------------------------------|
|--0000-------0000-----10-10-10-10--| x2

(4:43)
|-----------------------------------|
|-----------------------------------|
|--------------------3---5---2---0--|
|--0-0-0----------------------------| x4





Comments


Popular In Flames tabs & chords
Touch Of Red Bass Tabs
Trigger 1 Bass Tabs
Zombie Bass Tabs
Metaphor Chords
Biosphere Tabs
Episode 666 1 Tabs
Goliaths Disarm Their Davids Tabs
Ordinary Story Tabs
Saburban Me Tabs
Scream 1 Tabs


Song lyrics



↑ Back to top | Tablatures and chords are parodies/interpretations of the original songs. You may use it for private study, scholarship, research or language learning purposes only
© 2014 AZChords.com Contact us | Privacy policy | DMCA | Add/correct tabs | Request tabs | Top 50 tabs