>
 >
Dead Eternity

Dead Eternity Guitar Tabs

In Flames - Dead Eternity chords, tabs, tablatures, lyrics

Guitar lessons | Add/correct | Request | Top 50 tabs Artists:  A B C D E F G H I J K L M N O P Q R S T U V W X Y Z 0-9

Dead Eternity Guitar Tabs – In Flames

CD, Sheet music, Poster

Do you like Dead Eternity? Share with your friends now
Bass TabsBass Tabs v2TabsTabs v2
IN FLAMES - DEAD ETERNITY
(The Jester Race, 1995)

Key
= after note = vibrato
^ after note = heavy vibrato 
\ = slide down
/ = slide up
+ = tap
h = hammer
p = pull
n = natural harmonic
s = pinching harmonic (squeal)
* = tremolo pick
t = trill
b = bend
|-3-| = triplet

n number above the tab = play the first part then the first finishing part
			 play the first part a second time and then play the second finishing part
			 etc.

Tune Down 2 Steps

Riff 1

C  ---------------------------------------------
G  ---------------------------------------------
Eb -12-12-12-12-12-12-12-12-8-8-8-8-10-10-10-10-
Bb -12-12-12-12-12-12-12-12-8-8-8-8-10-10-10-10-
F  -10-10-10-10-10-10-10-10-6-6-6-6-8 -8 -8 -8 -
C  ---------------------------------------------

Riff 1A

C  ---------------------------------
G  -----3-4-3-------3---3-4---3-4-6-
Eb -3-5-------5-3-5---5-----5-------
Bb ---------------------------------
F  ---------------------------------
C  ---------------------------------

Riff 1B

C  ---------------------------------
G  ---------------------------------
Eb -3-2-0-0-3-2-0-2-3-2-3-5---2-3-5-
Bb -------------------------3-------
F  ---------------------------------
C  ---------------------------------

Riff 2

C  -----------------------------------------------------------------------------------------------------------------
G  -----------------------------------------------------------------------------------------------------------------
Eb -----------------------------8--8-8--8-8-8-5--5-5--5-5-5-----------------------------8--8-8--8-8-8---------------
Bb -5--5-5--5-5-5-5--5-5--5-5-5-8--8-8--8-8-8-5--5-5--5-5-5-5--5-5--5-5-5-5--5-5--5-5-5-8--8-8--8-8-8-5--5-3--3-3-3-
F  -5--5-5--5-5-5-5--5-5--5-5-5-6--6-6--6-6-6-3--3-3--3-3-3-5--5-5--5-5-5-5--5-5--5-5-5-6--6-6--6-6-6-5--5-3--3-3-3-
C  -3--3-3--3-3-3-3--3-3--3-3-3-----------------------------3--3-3--3-3-3-3--3-3--3-3-3---------------3--3-1--1-1-1-

Riff 2A

C  --------------------------------------------------------------------------------------------
G  -3---1-----------------3---1------4---3---1--3---1-----------------3---1--------1-3-1-------
Eb ---------3--2---0--------------3---------------------3--2---0--------------3--3--------3-2--
Bb --------------------3-------------------------------------------3---------------------------
F  --------------------------------------------------------------------------------------------
C  --------------------------------------------------------------------------------------------

Riff 2B

C  -----------------------------------------------------------------------------------------------------------
G  -------------------------------------------1---------------------------------------------------------------
Eb -----------------------------8--8-8--8-8-8-----3---2-------------------------------------------------------
Bb -5--5-5--5-5-5-5--5-5--5-5-5-8--8-8--8-8-8------------5--5-5--5-5-5-5--5-5--5-5-5-3---2---0--0-2-3-2--0----
F  -5--5-5--5-5-5-5--5-5--5-5-5-6--6-6--6-6-6------------5--5-5--5-5-5-5--5-5--5-5-5-----------------------3--
C  -3--3-3--3-3-3-3--3-3--3-3-3--------------------------3--3-3--3-3-3-3--3-3--3-3-3--------------------------

Riff 2C

C  ----------------------------------3--------------------------------------------------------
G  -6---4---3-------------6---4---3------6---4--6---4---3-------------------------------------
Eb ------------5---3---2-----------------------------------5---3---2--3---2---0--0-2-3-2--0---
Bb -----------------------------------------------------------------------------------------3-
F  -------------------------------------------------------------------------------------------
C  -------------------------------------------------------------------------------------------

Riff 3

C  -----------------
G  -----------------
Eb -----------------
Bb -----2-----2-----
F  ---2-----2-----2-
C  -0-----0-----0---

Riff 4

C  -------------------------------------------------
G  -------------------------------------------------
Eb -4---4-4----4------------------4----4------------
Bb ----------7---4---4-4----5---5----7---4----------
F  ------------------------------------------5-5----
C  -------------------------------------------------

Riff 4A

C  -------------------------------------------------
G  -------------------------------------------------
Eb -------------------------------4--2-4------------
Bb -5---5-5--4-5-0---0-0----2---2--------4---2-2----
F  -------------------------------------------------
C  -------------------------------------------------

Riff 5

C  ----------------------------------------------------------------------------------------------------
G  ----------------------------------------------------------------------------------------------------
Eb ----------------------------------------------------------------------------------------------------
Bb ----------------------------------------------------------------------------------------------------
F  -------------------------22-22-22-22-22-22-22-22-22-33-33-33-33-55-55-55-55-22-22-22-00-00-00-00-00-
C  -00-00-00-00-00-00-00-00----------------------------------------------------------------------------

Riff 5A 

C  -------------------------------------------------------------------------------------------------
G  -------------------------------------------------------------------------------------------------
Eb -------------------------------------------------------------44-44-22-44-------------------------
Bb -55-55-55-55-55-55-44-55-00-00-00-00-00-00-00-00-22-22-22-22-------------44-44-44-22-22-22-22-22-
F  -------------------------------------------------------------------------------------------------
C  -------------------------------------------------------------------------------------------------

Riff 6

C  ---------------------
G  ---------------------
Eb ----4----------------
Bb -2--4----------4--4--
F  -2--2----------4--4--
C  -0-----3-3-3-0-2--2--

Riff 7 

C  ----------------------------------------------------
G  ----------------------------------------------------
Eb -----2-5--------2-7-----------2------5--5-7-7-7-7-7-
Bb -2---2-5----2---2-7----2--4-5-2------5--5-7-7-7-7-7-
F  -2---0-3----2---0-5----2--4-5-0--5-0-3--3-5-5-5-5-5-
C  -0----------0----------0--2-3-----------------------

Riff 7A

C  ------------------------------------------------------
G  ------------------------------------------------------
Eb ------------------------------------------------------
Bb -2----0-2----2---0-5--4-5-2---0-2--2-0-2--4-5-5-4-2-4-
F  -2-----------2------------2---------------------------
C  -0--0--------0------------0---------------------------

Riff 8

C  -----------------------------------------------------------------------------------
G  -----------------------------------------------------------------------------------
Eb ----------------------5------7-------------------------11---12-5------7------------
Bb -2--------------------5------7-------------------------11---12-5------7--5-4h5p4---
F  -2-------5h7---9---10-3-33-3-5--55-55-55-7-------5h7---9 ---10-3-33-3-5----------5-
C  -0-00-00-----0---0-------------------------00-00-----0----0------------------------

Riff 8A

C  -----------------------------------------------------------------------------------
G  -----------------------------------------------------------------------------------
Eb ----------------------5------7-------------------------11---12-5------7--4-2h4p2---
Bb -2--------------------5------7-------------------------11---12-5------7----------4-
F  -2-------5h7---9---10-3-33-3-5--55-55-55-7-------5h7---9 ---10-3-33-3-5------------
C  -0-00-00-----0---0-------------------------00-00-----0----0------------------------

Riff 9 

C  --------------------------------------------------
G  --------------------------------------------------
Eb -----4-7--------4-9-----------4----7--7-9-9-9-9-9-
Bb -4---4-7----4---4-9----4--6-7-4----7--7-9-9-9-9-9-
F  -4---2-5----4---2-7----4--6-7-2----5--5-7-7-7-7-7-
C  -2----------2----------2--4-5---------------------

Riff 9A

C  --------------------------------------------------
G  --------------------------------------------------
Eb ------------------2--1-------------2--4-6-6-4-2-4-
Bb -4---2-4----4---2-------4---2-4-------------------
F  -4----------4-----------4-------------------------
C  -2----------2-----------2-------------------------

Riff 10

C  ----------------------------------------------------------------------
G  ----------------------------------------------------------------------
Eb ---9---12---11---7---5---9---7---11---9---12---11---7---5---9---7---4-
Bb ----------------------------------------------------------------------
F  ---7---10---9 ---5---3---7---5---9 ---7---10---9 ---5---3---7---5---2-
C  -0---0----0----0---0---0---0---0----0---0----0----0---0---0---0---0---

Riff 10A

C  --------------------------------------------------------------------
G  --------------------------------------------------------------------
Eb ---9---12---11---7---5---9---7---11---9---12---11---7-5--5-7-7--7-7-
Bb ------------------------------------------------------5--5-7-7--7-7-
F  ---7---10---9 ---5---3---7---5---9 ---7---10---9 ---5-3--3-5-5--5-5-
C  -0---0----0----0---0---0---0---0----0---0----0----0-----------------

Riff 11

C  ------------------------------------------------------------------
G  ------------------------------------------------------------------
Eb -9-----9-----9----------------------9-----9-----9---10---10---10--
Bb -9-----9-----9---10-----10-----10---9-----9-----9---10---10---10--
F  -7-----7-----7---7 -----7 -----7 ---7-----7-----7---8 ---8 ---8 --
C  -0-0-0-0-0-0-0-0-0 -0-0-0 -0-0-0 -0-0-0-0-0-0-0-0-0---------------

Riff 12

C  --------------------------------------------------------------------
G  --------------------------------------------------------------------
Eb --------------------------------------------------------------------
Bb -2---2---2-2-2---2---2--2---2---2-2-2---2---2-----2-4-5-------2-5-4-
F  -2---2---2-2-2---2---2--2---2---2-2-2---2---2-----------------------
C  -0---0---0-0-0---0---0--0---0---0-0-0---0---0-0-0-------0-0-0-------

Riff 13

C  -------------------------------------------------------------------------------------------------------
G  -------------------------------------------------------------------------------------------------------
Eb -------------------------------------------------------------------------------------------------------
Bb ---------------------------9-----9--------9-7------------------7-----------7-----------5-7-8-7---5---5-
F  -7-----7-10-9-7-----7-9-10---------10-9-7-----10-9-7-5-5-5-0-8---8-5-5-0-8---8-5-5-0-8---------8---8---
C  ---0-0----------0-0----------0-0-----------------------------------------------------------------------

Riff 14

C  -------------------------------------------------------------------------------------------------
G  -------------------------------------------------------------------------------------------------
Eb -------------------------------2-2-2-------------------------------------------4-4-4-2-2-2-------
Bb -5-5-5-4-5-4-0-0-0-4-4-4-2-2-2-------4-4-4-2-2-2-5-5-5-4-5-4-0-0-0-4-4-4-2-2-2-------------4-4-4-
F  -------------------------------------------------------------------------------------------------
C  -------------------------------------------------------------------------------------------------

Riff 14A

C  -------------------------------------------------------------------------------------------------
G  -------------------------------------------------------------------------------------------------
Eb -------------------------------2-2-2-------------------------------------------4-4-4-------------
Bb -2-2-2-0-2-0-------0-0-0-------------4-4-4-2-2-2-2-2-2-0-2-0-------0-0-0-------------4-4-4-2-2-2-
F  -------------2-2-2-------3-3-3-------------------------------2-2-2-------3-3-3-------------------
C  -------------------------------------------------------------------------------------------------

Riff 14B 

C  -------------------------------------------------------------------------------
G  -------------------------------------------------------------------------------
Eb -9-9-9----------5-5-5-7-7-7-4-4-4-2-2-2-9-9-9----------5-5-5-7-7-7-4-4-4-2-2-2-
Bb -9-9-9----------5-5-5-7-7-7-4-4-4-2-2-2-9-9-9----------5-5-5-7-7-7-4-4-4-2-2-2-
F  -7-7-7----------3-3-3-5-5-5-2-2-2-0-0-0-7-7-7----------3-3-3-5-5-5-2-2-2-0-0-0-
C  -------------------------------------------------------------------------------

Order  

Riff 1/1A/1B x 4
Riff 2A/2B x 1
Riff 2/2A/2C x 1
Riff 3 x 4
Riff 4/4A x 2
Riff 5/5A x 4
Riff 6 x 1
Riff 7/7A x 2
Riff 8/8A x 2
Riff 7/7A x 2
Riff 8/8A x 2
Riff 5/5A x 2
Riff 6 x 1
Riff 7/7A x 2
Riff 9/9A x 2
Riff 10/10A x 2
Solo over Riff 11 x 2
Riff 10/10A x 2
Riff 12 x 1
Solo over Riff 13 x 2
Riff 13 x 2
Riff 14/14A/14B x 4





Comments


Popular In Flames tabs & chords
Egonomic Bass Tabs
Zombie Bass Tabs
Abnegation Tabs
Episode 6 Tabs
Graveland Tabs
Im The Highway Intro Tabs
Jesters Dance Tabs
Square Nothing Tabs
Square Nothing 1 Tabs
Take This Life Tabs


Song lyrics



↑ Back to top | Tablatures and chords are parodies/interpretations of the original songs. You may use it for private study, scholarship, research or language learning purposes only
© 2014 AZChords.com Contact us | Privacy policy | DMCA | Add/correct tabs | Request tabs | Top 50 tabs