» » »

Come Clarity Bass tabs (ver.1)

Artists:  A B C D E F G H I J K L M N O P Q R S T U V W X Y Z # 

Come Clarity Bass tabs (ver.1)

In Flames
Rating:
0/5 (0 votes)

Tabs too difficult? Try these video lessons and learn fast.
                5-String Bass Tab


Tuning: B E A D G

intro

G -----------------------------------------------|
D -----------------------------------------------|
A ---------------------6----------------------6--|
E --6---6-------444-222---6----6-------444-222---|
B ---00--00--222-----------00---00--222----------|


G -------------------------------------------|
D -------------------------------------------|
A -------------------------------------666---|
E --6--6-8--8-2--2-4--4-6--6-8--8-2--2-------|
B -------------------------------------------|


verse 1

G -----------------------------------------------|
D -----------------------------------------------|
A ---------------------6----------------------6--|
E --6---6-------444-222---6----6-------444-222---|
B ---00--00--222-----------00---00--222----------|

G -------------------------------------------|
D -------------------------------------------|
A -------------------------------------------|
E --66666666--44444444--222222222222222------|
B -------------------------------------------|

G -------------------------------------------|
D -------------------------------------------|
A -------------------------------------------|
E --66666666--44444444--222222222222222------|
B -------------------------------------------|


Chorus 1

G --------------------------------------------------------------------------|
D ----------------------8---------------------------------------------------|
A ---------------------8-8-4---44444444----------34-------------------------|
E 666666666666666666666------6----------444444444--4444444----------------6-|
B -------------------------------------------------------44444444-77777777--|

G ------------------------------------------------------------------------|
D ------------------------------------------------------------------------|
A -----------------------444444444----------34----------------------------|
E 666666666666666666666------------444444444--4444444-------------------6-|
B ----------------------------------------------------44444444-77777777---|

verse 2

G -----------------------------------------------|
D -----------------------------------------------|
A ---------------------6----------------------6--|
E --6---6-------444-222---6----6-------444-222---|
B ---00--00--222-----------00---00--222----------|


G -----------------------------------------------|
D -----------------------------------------------|
A -----------------------------------------------|
E --6--6-8--8-2--2-4--4-6--6-8--8-2--2-44444444--|
B -----------------------------------------------|

chorus 2

G ------------------------------------------------------------------------|
D ------------------------------------------------------------------------|
A -----------------------444444444----------34----------------------------|
E 6666666666666666666666-----------444444444--4444444-------------------6-|
B ----------------------------------------------------44444444-77777777---|

G -----------------------------------------------------------------------|
D -----------------------------------------------------------------------|
A -----------------------444444444----------34---------------------------|
E 6666666666666666666666-----------444444444--4444444--------------------|
B ----------------------------------------------------44444444-77777777--|

breakdown/solo

G --------------------------------------------------------------|
D --------------------------------------------------------------|
A ---4----------------------------------------------------------|
E -2---4-6-4-2-1-2-1-222-55-6-666-66 2-222-22----------44444-2--|
B --------------------------------------------2-222-22----------|

G -------------------------------------|
D -------------------------------------|
A -------------------------------------|
E -6-666-66 2-222-22----------44444-2--|
B -------------------2-222-22----------|

G -------------------------------------|
D -------------------------------------|
A -------------------------------------|
E -6-666-66 2-222-22----------44444-2--|
B -------------------2-222-22----------|

G ---------------------------------------|
D ---------------------------------------|
A ---------------------------------------|
E -6-666-66 2-222-22----------44444-2-6--|
B -------------------2-222-22------------|

chorus 3

G --------------------------------------------------------------------------|
D ----------------------8---------------------------------------------------|
A ---------------------8-8-4---44444444-------------------------------------|
E 666666666666666666666------6----------4444444444444444------------------6-|
B -------------------------------------------------------44444444-77777777--|

G ------------------------------------------------------------------------|
D ------------------------------------------------------------------------|
A -----------------------444444444----------------------------------------|
E 666666666666666666666-----------444444444444444444----------------------|
B ----------------------------------------------------44444444-77777777---|

G --------------------------------------------------------------------------|
D ----------------------8---------------------------------------------------|
A ---------------------8-8-4---44444444-------------------------------------|
E 666666666666666666666------6----------4444444444444444------------------6-|
B -------------------------------------------------------44444444-77777777--|

G -----------------------------------------------------------------------|
D -----------------------------------------------------------------------|
A -----------------------444444444---------------------------------------|
E 666666666666666666666------------444444444444444444--------------------|
B ----------------------------------------------------44444444-77777777--|



(this is my first tab but I think it's fairly accurate, please rate it
... enjoy!)
            
Tabs too difficult? Try these video lessons and learn fast.


comments powered by Disqus
↑ Back to top | Tablatures and chords are parodies/interpretations of the original songs. You may use it for private study, scholarship, research or language learning purposes only