>
 >
Colony

Colony Bass Tabs

In Flames - Colony chords, tabs, tablatures, lyrics

Guitar lessons | Add/correct | Request | Top 50 tabs Artists:  A B C D E F G H I J K L M N O P Q R S T U V W X Y Z 0-9

Colony Bass Tabs – In Flames

CD, Sheet music, Poster

Do you like Colony? Share with your friends now
Bass TabsTabsTabs v2



Eb :----|------------------|----------------|-------------------|
Bb :----|------------------|----------------|-------------------|
F  :----|------------------|----------------|-------------------|
Bb :7---|10-12-------------|----------------|(12)---------------|

Eb :----------------|------------------|----------------|
Bb :----------------|------------------|----------------|
F  :----------------|------------------|----------------|
Bb :------------7---|10-12-------------|----------------|

Eb :-------------------|----------------|----------------|
Bb :-------------------|----------------|------7-----5---|
F  :-------------------|----------------|5---------------|
Bb :(12)---------------|----------------|--0-0---0-0---0-|

Eb :----------------|----------------|----------------|----------------|
Bb :----------------|----------------|----------------|----------------|
F  :--8-----0-1-0---|------8-x-------|--------7-8-----|5-----7-----8---|
Bb :0---0-0-------5-|5---5-----5-8---|--8---------0-0-|--0-0---0-0---0-|

Eb :----------------|----------------|----------------|----------------|
Bb :--------7-------|----------------|----------------|------7-----5---|
F  :--5---------8---|----------------|----------------|5---------------|
Bb :0---0-0---0-----|5---5-5-x-5-3---|3-3---x-3-3-0-0-|--0-0---0-0---0-|

Eb :----------------|----------------|----------------|----------------|
Bb :----------------|----------------|----------------|----------------|
F  :--8-----0-1-0---|------8-x-------|--------7-8-----|5-----7-----8---|
Bb :0---0-0-------5-|5---5-----5-8---|--8---------0-0-|--0-0---0-0---0-|

Eb :----------------|----------------|----------------|
Bb :--------7-------|----------------|----------------|
F  :--5---------8---|----------------|----------------|
Bb :0---0-0---0-----|5---5-5-x-5-3---|3-3-3-3-3-3-3-3-|

Eb :|*----------------|----------------|----------------|
Bb :| ----------------|----------------|----------------|
F  :| 3-5-----3-5-----|3-5-------------|3-5-----3-5-----|
Bb :| ----0-0-----0-0-|----0-3-2-0-3-2-|----0-0-----0-0-|

Eb :----------------|----------------|----------------|----------------|
Bb :----------------|----------------|----------------|----------------|
F  :3-5-------------|3-5-----3-5-----|3-5-------------|----------------|
Bb :----0-3-2-0-3-2-|----0-0-----0-0-|----0-3-2-0-3-2-|5---5-5-x-5-8---|

Eb :----------------*1|----------------|----------------|
Bb :---------------- ||----------------|----------------|
F  :---------------- ||----------------|----------------|
Bb :--8-x----------- ||*-0-0-0-*-0-0-0-|*-5-5-5-*-3-3-3-|

Eb :----------------|----------------|----------------|----------------|
Bb :----------------|----------------|----------------|----------------|
F  :----------------|----------------|----------------|----------------|
Bb :*-0-0-0-*-0-0-0-|*-5-5-5-*-3-3-3-|*-0-0-0-*-0-0-0-|*-5-5-5-*-3-3-3-|

Eb :----------------|----------------||*----------------|
Bb :----------------|----------------|| ----------------|
F  :----------------|----------------|| 3-5-----3-5-----|
Bb :*-0-0-0-*-0-0-0-|*-5-5-5-*-3-3-3-|| ----0-0-----0-0-|

Eb :----------------|----------------|----------------|----------------|
Bb :----------------|----------------|----------------|----------------|
F  :3-5-------------|3-5-----3-5-----|3-5-------------|3-5-----3-5-----|
Bb :----0-3-2-0-3-2-|----0-0-----0-0-|----0-3-2-0-3-2-|----0-0-----0-0-|

Eb :----------------|----------------|----------------*1|
Bb :----------------|----------------|---------------- ||
F  :3-5-------------|----------------|---------------- ||
Bb :----0-3-2-0-3-2-|5---5-5-x-5-8---|--8-x----------- ||

Eb :----------------|----------------|----------------|----------------|
Bb :----------------|----------------|----7-------7-5-|----------------|
F  :----------------|----------------|8-x---x-8-x-----|8-x-------------|
Bb :5-------x-x-5---|----x-x-5-------|----------------|----5---x-5-5---|

Eb :------------------|------------------*1|----------------|
Bb :------------------|------------------ ||----------------|
F  :------------------|------------------ ||----------------|
Bb :8---8---7-8-7-5---|10-10-x-5-5-5-5-5- ||*-0-0-0-*-0-0-0-|

Eb :----------------|----------------|----------------|----------------|
Bb :----------------|----------------|----------------|----------------|
F  :----------------|----------------|----------------|----------------|
Bb :*-5-5-5-*-3-3-3-|*-0-0-0-*-0-0-0-|*-5-5-5-*-3-3-3-|*-0-0-0-*-0-0-0-|

Eb :----------------|----------------|----------------|
Bb :----------------|----------------|----------------|
F  :----------------|----------------|----------------|
Bb :*-5-5-5-*-3-3-3-|*-0-0-0-*-0-0-0-|*-5-5-5-*-3-3-3-|

Eb :|*----------------|----------------|----------------|
Bb :| ----------------|----------------|----------------|
F  :| 3-5-----3-5-----|3-5-------------|3-5-----3-5-----|
Bb :| ----0-0-----0-0-|----0-3-2-0-3-2-|----0-0-----0-0-|

Eb :----------------|----------------|----------------|----------------|
Bb :----------------|----------------|----------------|----------------|
F  :3-5-------------|3-5-----3-5-----|3-5-------------|----------------|
Bb :----0-3-2-0-3-2-|----0-0-----0-0-|----0-3-2-0-3-2-|5---5-5-x-5-8---|

Eb :----------------*1|----------------|----------------|
Bb :---------------- ||----------------|----------------|
F  :---------------- ||----------------|----------------|
Bb :--8-x----------- ||5-------x-x-5---|----x-x-5-------|

Eb :----------------|----------------|----------------|
Bb :----7-------7-5-|----------------|----------------|
F  :8-x---x-8-x-----|8-x-------------|----------------|
Bb :----------------|----5---x-5-5---|8---*---7-7-5---|

Eb :------------------*1|----------------|----------------|
Bb :------------------ ||----------------|----------------|
F  :------------------ ||--------0---3---|3---3---3---3---|
Bb :10-10-x-5-5-5-5-5- ||0---0-----------|----------------|

Eb :----------------|----------------|----------------|----------------|
Bb :----------------|----------------|----------------|----------------|
F  :2---2---2---2---|1---1---1---1---|--------0---3---|3---3---3---3---|
Bb :----------------|----------------|0---0-----------|----------------|

Eb :----------------|----------------*1|----------------|
Bb :----------------|---------------- ||----------------|
F  :2---2---2---2---|1---1---1---1--- ||3-5-----3-5-----|
Bb :----------------|---------------- ||----0-0-----0-0-|

Eb :----------------|----------------|----------------|----------------|
Bb :----------------|----------------|----------------|----------------|
F  :3-5-------------|3-5-----3-5-----|3-5-------------|3-5-----3-5-----|
Bb :----0-3-2-0-3-2-|----0-0-----0-0-|----0-3-2-0-3-2-|----0-0-----0-0-|

Eb :----------------|----------------|----------------*1|
Bb :----------------|----------------|---------------- ||
F  :3-5-------------|----------------|---------------- ||
Bb :----0-3-2-0-3-2-|5---5-5-x-5-8---|--8-x----------- ||

Eb :----------------|----------------|----------------|----------------|
Bb :------------3---|----------------|------------3---|----------------|
F  :----------------|------------1---|----------------|1-1-1-1-1-1-1-1-|
Bb :0---0---0-0-----|0-----0-0-------|0---0---0-0-----|----------------|

Eb :----------------|----------------|----------------|----------------*1|
Bb :------------3---|----------------|------------3---|---------------- ||
F  :----------------|------------1---|----------------|1-1-1-1-1-1-1-1- ||
Bb :0---0---0-0-----|0-----0-0-------|0---0---0-0-----|---------------- ||

Eb :----------------|----------------|----------------|----------------|
Bb :----------------|----------------|----------------|----------------|
F  :--------0---3---|3---3---3---3---|2---2---2---2---|1---1---1---1---|
Bb :0---0-----------|----------------|----------------|----------------|

Eb :----------------|----------------|----------------|----------------*1|
Bb :----------------|----------------|----------------|---------------- ||
F  :--------0---3---|3---3---3---3---|2---2---2---2---|1---1---1---1--- ||
Bb :0---0-----------|----------------|----------------|---------------- ||

Eb :----------------|----------------|----------------|----------------|
Bb :------7-----5---|----------------|----------------|----------------|
F  :5---------------|--8-----0-1-0---|------8-x-------|--------7-8-----|
Bb :--0-0---0-0---0-|0---0-0-------5-|5---5-----5-8---|--8---------0-0-|

Eb :----------------|----------------|----------------|----------------|
Bb :----------------|--------7-------|----------------|----------------|
F  :5-----7-----8---|--5---------8---|----------------|----------------|
Bb :--0-0---0-0---0-|0---0-0---0-----|5---5-5-x-5-3---|3-3---x-3-3-0-0-|

Eb :----------------|----------------|----------------|----------------|
Bb :------7-----5---|----------------|----------------|----------------|
F  :5---------------|--8-----0-1-0---|------8-x-------|--------7-8-----|
Bb :--0-0---0-0---0-|0---0-0-------5-|5---5-----5-8---|--8---------0-0-|

Eb :----------------|----------------|----------------|----------------|
Bb :----------------|--------7-------|----------------|----------------|
F  :5-----7-----8---|--5---------8---|----------------|----------------|
Bb :--0-0---0-0---0-|0---0-0---0-----|5---5-5-x-5-3---|3-3-3-3-3-3-3-3-|

Eb :----------------|----------------|----------------|----------------|
Bb :----------------|------7-----5---|----------------|----------------|
F  :----------------|5---------------|--8-----0-1-0---|------8-x-------|
Bb :3-3-3-3-3-3-3-3-|--0-0---0-0---0-|0---0-0-------5-|5---5-----5-8---|

Eb :----------------|----------------|----------------|----------------|
Bb :----------------|----------------|--------7-------|----------------|
F  :--------7-8-----|5-----7-----8---|--5---------8---|----------------|
Bb :--8---------0-0-|--0-0---0-0---0-|0---0-0---0-----|5---5-5-x-5-3---|

Eb :----------------|----------------|----------------|----------------|
Bb :----------------|------7-----5---|----------------|----------------|
F  :----------------|5---------------|--8-----0-1-0---|------8-x-------|
Bb :3-3---x-3-3-0-0-|--0-0---0-0---0-|0---0-0-------5-|5---5-----5-8---|

Eb :----------------||*----------------|----------------|
Bb :----------------|| ----------------|--------7-------|
F  :--------7-8-----|| 5-----7-----8---|--5---------8---|
Bb :--8---------0-0-|| --0-0---0-0---0-|0---0-0---0-----|

Eb :----------------|----------------*1|----------------|
Bb :----------------|---------------- ||----------------|
F  :----------------|---------------- ||----------------|
Bb :5---5-5-x-5-3---|3-3-3-3-3-3-3-3- ||--*-------------|





Comments


Popular In Flames tabs & chords
Only For The Weak 3 Bass Tabs
Satellites And Astronauts Bass Tabs
Satellites And Astronauts 2 Bass Tabs
Zombie Bass Tabs
Alias Tabs
Black And White 2 Tabs
In Flames Tabs
Sober And Irrelevant Tabs
Trigger Tabs
Vanishing Light Tabs


Song lyrics



↑ Back to top | Tablatures and chords are parodies/interpretations of the original songs. You may use it for private study, scholarship, research or language learning purposes only
© 2014 AZChords.com Contact us | Privacy policy | DMCA | Add/correct tabs | Request tabs | Top 50 tabs