>
 >
Colony

Colony Guitar Tabs

In Flames - Colony chords, tabs, tablatures, lyrics

Guitar lessons | Add/correct | Request | Top 50 tabs Artists:  A B C D E F G H I J K L M N O P Q R S T U V W X Y Z 0-9

Colony Guitar Tabs – In Flames

CD, Sheet music, Poster

Do you like Colony? Share with your friends now
Bass TabsTabsTabs v2

This is a set of three guitars.


C  :-----|------------------|12-13---15----------|--------------------|
G  :-----|13-15-------------|---------------13---|-13--15-------------|
Eb :14---|------------------|-9-10---12----------|--------------------|
Bb :-----|10-12-------------|---------------10---|-10--12-------------|
F  :12---|------------------|--------------------|--------------------|
Bb :-----|------------------|--------------------|--------------------|

C  :-----|------------------|--------------------|--------------------|
G  :-----|------------------|--------------------|--------------------|
Eb :-----|------------------|--------------------|--------------------|
Bb :-7---|10-12-------------|--------------------|(12)----------------|
F  :-7---|10-12-------------|--------------------|(12)----------------|
Bb :-7---|10-12-------------|--------------------|(12)----------------|

C  :-----|------------------|--------------------|--------------------|
G  :-----|------------------|--------------------|--------------------|
Eb :-----|------------------|--------------------|--------------------|
Bb :-----|------------------|--------------------|--------------------|
F  :-----|------------------|--------------------|--------------------|
Bb :-----|------------------|--------------------|--------------------|


C  :12-13---15-----18---|17----------------|15-13---12----------|
G  :--------------------|------------------|---------------13---|
Eb :-9-10---12-----15---|14----------------|12-10----9----------|
Bb :--------------------|------------------|---------------10---|
F  :--------------------|------------------|--------------------|
Bb :--------------------|------------------|--------------------|

C  :--------------------|------------------|--------------------|
G  :--------------------|------------------|--------------------|
Eb :--------------------|------------------|--------------------|
Bb :----------------7---|10-12-------------|--------------------|
F  :----------------7---|10-12-------------|--------------------|
Bb :----------------7---|10-12-------------|--------------------|

C  :--------------------|------------------|--------------------|
G  :--------------------|------------------|--------------------|
Eb :--------------------|------------------|--------------------|
Bb :--------------------|------------------|--------------------|
F  :--------------------|------------------|--------------------|
Bb :--------------------|------------------|--------------------|


C  :--------------------|12-13---15-----18---|----------------|
G  :-13--15-------------|--------------------|----------------|
Eb :--------------------|-9-10---12-----15---|----------------|
Bb :-10--12-------------|--------------------|------7-----8---|
F  :--------------------|--------------------|5---------------|
Bb :--------------------|--------------------|--0-0---0-0---0-|

C  :--------------------|--------------------|----------------|
G  :--------------------|--------------------|----------------|
Eb :--------------------|--------------------|----------------|
Bb :(12)----------------|--------------------|------7-----5---|
F  :(12)----------------|--------------------|5---------------|
Bb :(12)----------------|--------------------|--0-0---0-0---0-|

C  :--------------------|--------------------|----------------|
G  :--------------------|--------------------|----------------|
Eb :--------------------|--------------------|----------------|
Bb :--------------------|--------------------|----------------|
F  :--------------------|--------------------|----------------|
Bb :--------------------|--------------------|----------------|


C  :----------------|----------------|----------------|----------------|
G  :----------------|----------------|----------------|----------------|
Eb :----------------|----------------|----------------|----------------|
Bb :--7-----7-5-----|----------------|----------------|----------------|
F  :------------8-5-|5---5-8-x-5-8---|--8-----7-8-----|5-----7-----8---|
Bb :0---0-0---------|5---5---x-5-8---|--8---------0-0-|--0-0---0-0---0-|

C  :----------------|----------------|----------------|----------------|
G  :----------------|----------------|----------------|----------------|
Eb :----------------|----------------|----------------|----------------|
Bb :--------7-8-7-5-|----------------|--------5-7-----|------5-----7---|
F  :--8-------------|5---5-8-x-5-8---|--8-------------|8---------------|
Bb :0---0-0---------|5---5---x-5-8---|--8---------0-0-|--0-0---0-0---0-|

C  :----------------|----------------|----------------|----------------|
G  :----------------|----------------|----------------|----------------|
Eb :----------------|----------------|----------------|----------------|
Bb :----------------|----------------|----------------|----------------|
F  :----------------|----------------|----------------|----------------|
Bb :----------------|----------------|----------------|----------------|


C  :----------------|----------------|----------------|----------------|
G  :----------------|----------------|----------------|----------------|
Eb :----------------|----------------|----------------|----------------|
Bb :--------7-------|----------------|----------------|------7-----8---|
F  :--5---------8---|5---5-5-x-5-3---|3-3---x-3-3-----|5---------------|
Bb :0---0-0---0-----|5---5-5-x-5-3---|3-3---x-3-3-0-0-|--0-0---0-0---0-|

C  :----------------|----------------|----------------|----------------|
G  :----------------|----------------|----------------|----------------|
Eb :----------------|----------------|----------------|----------------|
Bb :--------7-------|----------------|----------------|------7-----5---|
F  :--8---------8---|5---5-5-x-5-3---|3-3---x-3-3-----|5---------------|
Bb :0---0-0---0-----|5---5-5-x-5-3---|3-3---x-3-3-0-0-|--0-0---0-0---0-|

C  :----------------|----------------|----------------|----------------|
G  :----------------|----------------|----------------|----------------|
Eb :----------------|----------------|----------------|----------------|
Bb :----------------|----------------|----------------|----------------|
F  :----------------|----------------|----------------|----------------|
Bb :----------------|----------------|----------------|----------------|


C  :----------------|----------------|----------------|----------------|
G  :----------------|----------------|----------------|----------------|
Eb :----------------|----------------|----------------|----------------|
Bb :--7-----7-5-----|----------------|----------------|----------------|
F  :------------8-5-|5---5-8-x-5-8---|--8-----7-8-----|5-----7-----8---|
Bb :0---0-0---------|5---5---x-5-8---|--8---------0-0-|--0-0---0-0---0-|

C  :----------------|----------------|----------------|----------------|
G  :----------------|----------------|----------------|----------------|
Eb :----------------|----------------|----------------|----------------|
Bb :--------7-8-7-5-|----------------|--------5-7-----|------5-----7---|
F  :--8-------------|5---5-8-x-5-8---|--8-------------|8---------------|
Bb :0---0-0---------|5---5---x-5-8---|--8---------0-0-|--0-0---0-0---0-|

C  :----------------|----------------|----------------|----------------|
G  :----------------|----------------|----------------|----------------|
Eb :----------------|----------------|----------------|----------------|
Bb :----------------|----------------|----------------|----------------|
F  :----------------|----------------|----------------|----------------|
Bb :----------------|----------------|----------------|----------------|


C  :----------------|----------------|----------------|
G  :----------------|----------------|----------------|
Eb :----------------|----------------|----------------|
Bb :--------7-------|----------------|----------------|
F  :--5---------8---|5---5-5-x-5-3---|3-3-3-3-3-3-3-3-|
Bb :0---0-0---0-----|5---5-5-x-5-3---|3-3-3-3-3-3-3-3-|

C  :----------------|----------------|----------------|
G  :----------------|----------------|----------------|
Eb :----------------|----------------|----------------|
Bb :--------7-------|----------------|----------------|
F  :--8---------8---|5---5-5-x-5-3---|3-3-3-3-3-3-3-3-|
Bb :0---0-0---0-----|5---5-5-x-5-3---|3-3-3-3-3-3-3-3-|

C  :----------------|----------------|----------------|
G  :----------------|----------------|----------------|
Eb :----------------|----------------|----------------|
Bb :----------------|----------------|----------------|
F  :----------------|----------------|----------------|
Bb :----------------|----------------|----------------|


C  :|*----------------|----------------|----------------|
G  :|*----------------|----------------|----------------|
Eb :| ----------------|----------------|----------------|
Bb :| ----------------|------3-2---3-2-|----------------|
F  :| 3-5-----3-5-----|3-5-------------|3-5-----3-5-----|
Bb :| ----0-0-----0-0-|----0-----0-----|----0-0-----0-0-|

C  :|*----------------|----------------|----------------|
G  :|*----------------|----------------|----------------|
Eb :| ----------------|----------------|----------------|
Bb :| ----------------|----------------|----------------|
F  :| 3-5-----3-5-----|3-5---5-3---5-3-|3-5-----3-5-----|
Bb :| ----0-0-----0-0-|----0-----0-----|----0-0-----0-0-|

C  :|*----------------|----------------|----------------|
G  :|*----------------|----------------|----------------|
Eb :| ----------------|----------------|----------------|
Bb :| ----------------|------7-5---7-5-|----------------|
F  :| 3-5-----3-5-----|3-5-------------|3-5-----3-5-----|
Bb :| ----0-0-----0-0-|----0-----0-----|----0-0-----0-0-|


C  :----------------|----------------|----------------|----------------|
G  :----------------|----------------|----------------|----------------|
Eb :----------------|----------------|----------------|----------------|
Bb :------3-2---3-2-|----------------|------3-2---3-2-|----------------|
F  :3-5-------------|3-5-----3-5-----|3-5-------------|5---5-5-x-5-8---|
Bb :----0-----0-----|----0-0-----0-0-|----0-----0-----|5---5-5-x-5-8---|

C  :----------------|----------------|----------------|----------------|
G  :----------------|----------------|----------------|----------------|
Eb :----------------|----------------|----------------|----------------|
Bb :----------------|----------------|----------------|----------------|
F  :3-5---5-3---5-3-|3-5-----3-5-----|3-5---5-3---5-3-|5---5-5-x-5-8---|
Bb :----0-----0-----|----0-0-----0-0-|----0-----0-----|5---5-5-x-5-8---|

C  :----------------|----------------|----------------|----------------|
G  :----------------|----------------|----------------|----------------|
Eb :----------------|----------------|----------------|----------------|
Bb :------7-5---7-5-|----------------|------7-5---7-5-|----------------|
F  :3-5-------------|3-5-----3-5-----|3-5-------------|5---5-5-x-5-8---|
Bb :----0-----0-----|----0-0-----0-0-|----0-----0-----|5---5-5-x-5-8---|


C  :------------------*1|------------------|--------------------|
G  :------------------*||------------------|--------------------|
Eb :------------------ ||------------------|----------------5-7-|
Bb :----7---5-7-5----- ||------8-7---7-5---|------5--8---8------|
F  :--8-----------8--- ||-5--8-----------8-|----5---------------|
Bb :--8--------------- ||------------------|-5------------------|

C  :------------------*1|------------------|--------------------|
G  :------------------*||------------------|--------------------|
Eb :------------------ ||------------------|--------------------|
Bb :------------------ ||------7-5---------|------5------8--7-8-|
F  :--8-8---7-8-7----- ||-5--8-------8-7-5-|----5---------------|
Bb :--8-----------8--- ||------------------|-5-------8----------|

C  :------------------*1|------------------|12-13---15----------|
G  :------------------*||13-15-------------|---------------13---|
Eb :------------------ ||------------------|-9-10---12----------|
Bb :------------------ ||10-12-------------|---------------10---|
F  :--8-x------------- ||------------------|--------------------|
Bb :--8-x------------- ||------------------|--------------------|


C  :------------------|--------------------|-----------------|
G  :------------------|--------------------|-----------------|
Eb :------------------|--------------------|-----------------|
Bb :------8-7---7-5---|------5----5----5-7-|-----8-7---7-5---|
F  :-5--8-----------8-|----5--------8------|-5-8-----------8-|
Bb :------------------|-5-------5----------|-----------------|

C  :------------------|--------------------|-----------------|
G  :------------------|--------------------|-----------------|
Eb :------------------|--------------------|-----------------|
Bb :------7-5---------|------5------3--2-3-|-----7-5---------|
F  :-5--8-------8-7-5-|----5---------------|-5-8-------8-7-5-|
Bb :------------------|-5-------3----------|-----------------|

C  :------------------|12-13---15-----18---|17---------------|
G  :13-15-------------|--------------------|-----------------|
Eb :------------------|-9-10---12-----15---|14---------------|
Bb :10-12-------------|--------------------|-----------------|
F  :------------------|--------------------|-----------------|
Bb :------------------|--------------------|-----------------|


C  :--------------------|------------------|--------------------|
G  :--------------------|------------------|--------------------|
Eb :----------------5-7-|------------------|--------------------|
Bb :------5--8---8------|------8-7---7-5---|------5----5----5-7-|
F  :----5---------------|-5--8-----------8-|----5--------8------|
Bb :-5------------------|------------------|-5-------5----------|

C  :--------------------|------------------|--------------------|
G  :--------------------|------------------|--------------------|
Eb :--------------------|------------------|--------------------|
Bb :------5------8--7-8-|------7-5---------|------5------3--2-3-|
F  :----5---------------|-5--8-------8-7-5-|----5---------------|
Bb :-5-------8----------|------------------|-5-------3----------|

C  :15-13---12----------|------------------|12-13---15-----18---|
G  :---------------13---|13-15-------------|--------------------|
Eb :12-10----9----------|------------------|-9-10---12-----15---|
Bb :---------------10---|10-12-------------|--------------------|
F  :--------------------|------------------|--------------------|
Bb :--------------------|------------------|--------------------|


C  :|*----------------|----------------|----------------|
G  :|*----------------|----------------|----------------|
Eb :| ----------------|----------------|----------------|
Bb :| ----------------|------3-2---3-2-|----------------|
F  :| 3-5-----3-5-----|3-5-------------|3-5-----3-5-----|
Bb :| ----0-0-----0-0-|----0-----0-----|----0-0-----0-0-|

C  :|*----------------|----------------|----------------|
G  :|*----------------|----------------|----------------|
Eb :| ----------------|----------------|----------------|
Bb :| ----------------|----------------|----------------|
F  :| 3-5-----3-5-----|3-5---5-3---5-3-|3-5-----3-5-----|
Bb :| ----0-0-----0-0-|----0-----0-----|----0-0-----0-0-|

C  :|*----------------|----------------|----------------|
G  :|*----------------|----------------|----------------|
Eb :| ----------------|----------------|----------------|
Bb :| ----------------|------7-5---7-5-|----------------|
F  :| 3-5-----3-5-----|3-5-------------|3-5-----3-5-----|
Bb :| ----0-0-----0-0-|----0-----0-----|----0-0-----0-0-|


C  :----------------|----------------|----------------|----------------|
G  :----------------|----------------|----------------|----------------|
Eb :----------------|----------------|----------------|----------------|
Bb :------3-2---3-2-|----------------|------3-2---3-2-|----------------|
F  :3-5-------------|3-5-----3-5-----|3-5-------------|5---5-5-x-5-8---|
Bb :----0-----0-----|----0-0-----0-0-|----0-----0-----|5---5-5-x-5-8---|

C  :----------------|----------------|----------------|----------------|
G  :----------------|----------------|----------------|----------------|
Eb :----------------|----------------|----------------|----------------|
Bb :----------------|----------------|----------------|----------------|
F  :3-5---5-3---5-3-|3-5-----3-5-----|3-5---5-3---5-3-|5---5-5-x-5-8---|
Bb :----0-----0-----|----0-0-----0-0-|----0-----0-----|5---5-5-x-5-8---|

C  :----------------|----------------|----------------|----------------|
G  :----------------|----------------|----------------|----------------|
Eb :----------------|----------------|----------------|----------------|
Bb :------7-5---7-5-|----------------|------7-5---7-5-|----------------|
F  :3-5-------------|3-5-----3-5-----|3-5-------------|5---5-5-x-5-8---|
Bb :----0-----0-----|----0-0-----0-0-|----0-----0-----|5---5-5-x-5-8---|


C  :------------------*1|-----------------|------------------|
G  :------------------*||-----------------|------------------|
Eb :------------------ ||-----------------|------------------|
Bb :----7---5-7-5----- ||7-----h8-x-x-7---|--h8-x-x-7---h8---|
F  :--8-----------8--- ||5--------x-x-5---|-----x-x-5--------|
Bb :--8--------------- ||5--------x-x-5---|-----x-x-5--------|

C  :------------------*1|-----------------|------------------|
G  :------------------*||-----------------|------------------|
Eb :------------------ ||-----------------|------------------|
Bb :------------------ ||7-----h8-x-x-7---|--h8-x-x-7---h8---|
F  :--8-8---7-8-7----- ||5--------x-x-5---|-----x-x-5--------|
Bb :--8-----------8--- ||5--------x-x-5---|-----x-x-5--------|

C  :------------------*1|-----------------|------------------|
G  :------------------*||-----------------|------------------|
Eb :------------------ ||-----------------|------------------|
Bb :------------------ ||-----------------|------------------|
F  :--8-x------------- ||-----------------|------------------|
Bb :--8-x------------- ||-----------------|------------------|


C  :----------------|----------------|--------------------|
G  :----------------|----------------|--------------------|
Eb :----5-------5---|----------------|--------------------|
Bb :7-x---x-7-x---8-|7-x-7---x-7-7---|--------------------|
F  :----------------|--x-5---x-5-5---|8---10---8-10-8-7---|
Bb :----------------|----5---x-5-5---|8-------------------|

C  :----------------|----------------|--------------------|
G  :----------------|----------------|--------------------|
Eb :----------------|----------------|--------------------|
Bb :----7-------7-5-|--x-7---x-7-7---|-----8---7--8-7-5---|
F  :8-x---x-8-x-----|8-x-5---x-5-5---|8-------------------|
Bb :----------------|----5---x-5-5---|8-------------------|

C  :----------------|----------------|--------------------|
G  :----------------|----------------|--------------------|
Eb :----------------|----------------|--------------------|
Bb :----------------|----------------|--------------------|
F  :----------------|----------------|--------------------|
Bb :----------------|----------------|--------------------|


C  :------------------*1|------------------|--------------------|
G  :------------------*||------------------|--------------------|
Eb :------------------ ||------------------|----------------5-7-|
Bb :------------------ ||------8-7---7-5---|------5--8---8------|
F  :10-10-x-5-5-5-5-5- ||-5--8-----------8-|----5---------------|
Bb :10-10-x-5-5-5-5-5- ||------------------|-5------------------|

C  :------------------*1|------------------|--------------------|
G  :------------------*||------------------|--------------------|
Eb :------------------ ||------------------|--------------------|
Bb :------------------ ||------7-5---------|------5------8--7-8-|
F  :10-10-x-5-5-5-5-5- ||-5--8-------8-7-5-|----5---------------|
Bb :10-10-x-5-5-5-5-5- ||------------------|-5-------8----------|

C  :------------------*1|------------------|12-13---15----------|
G  :------------------*||13-15-------------|---------------13---|
Eb :------------------ ||------------------|-9-10---12----------|
Bb :------------------ ||10-12-------------|---------------10---|
F  :------------------ ||------------------|--------------------|
Bb :------------------ ||------------------|--------------------|


C  :------------------|--------------------|-----------------|
G  :------------------|--------------------|-----------------|
Eb :------------------|--------------------|-----------------|
Bb :------8-7---7-5---|------5----5----5-7-|-----8-7---7-5---|
F  :-5--8-----------8-|----5--------8------|-5-8-----------8-|
Bb :------------------|-5-------5----------|-----------------|

C  :------------------|--------------------|-----------------|
G  :------------------|--------------------|-----------------|
Eb :------------------|--------------------|-----------------|
Bb :------7-5---------|------5------3--2-3-|-----7-5---------|
F  :-5--8-------8-7-5-|----5---------------|-5-8-------8-7-5-|
Bb :------------------|-5-------3----------|-----------------|

C  :------------------|12-13---15-----18---|17---------------|
G  :13-15-------------|--------------------|-----------------|
Eb :------------------|-9-10---12-----15---|14---------------|
Bb :10-12-------------|--------------------|-----------------|
F  :------------------|--------------------|-----------------|
Bb :------------------|--------------------|-----------------|


C  :--------------------|------------------|--------------------|
G  :--------------------|------------------|--------------------|
Eb :----------------5-7-|------------------|--------------------|
Bb :------5--8---8------|------8-7---7-5---|------5----5----5-7-|
F  :----5---------------|-5--8-----------8-|----5--------8------|
Bb :-5------------------|------------------|-5-------5----------|

C  :--------------------|------------------|--------------------|
G  :--------------------|------------------|--------------------|
Eb :--------------------|------------------|--------------------|
Bb :------5------8--7-8-|------7-5---------|------5------3--2-3-|
F  :----5---------------|-5--8-------8-7-5-|----5---------------|
Bb :-5-------8----------|------------------|-5-------3----------|

C  :15-13---12----------|------------------|12-13---15-----18---|
G  :---------------13---|13-15-------------|--------------------|
Eb :12-10----9----------|------------------|-9-10---12-----15---|
Bb :---------------10---|10-12-------------|--------------------|
F  :--------------------|------------------|--------------------|
Bb :--------------------|------------------|--------------------|


C  :|*----------------|----------------|----------------|
G  :|*----------------|----------------|----------------|
Eb :| ----------------|----------------|----------------|
Bb :| ----------------|------3-2---3-2-|----------------|
F  :| 3-5-----3-5-----|3-5-------------|3-5-----3-5-----|
Bb :| ----0-0-----0-0-|----0-----0-----|----0-0-----0-0-|

C  :|*----------------|----------------|----------------|
G  :|*----------------|----------------|----------------|
Eb :| ----------------|----------------|----------------|
Bb :| ----------------|----------------|----------------|
F  :| 3-5-----3-5-----|3-5---5-3---5-3-|3-5-----3-5-----|
Bb :| ----0-0-----0-0-|----0-----0-----|----0-0-----0-0-|

C  :|*----------------|----------------|----------------|
G  :|*----------------|----------------|----------------|
Eb :| ----------------|----------------|----------------|
Bb :| ----------------|------7-5---7-5-|----------------|
F  :| 3-5-----3-5-----|3-5-------------|3-5-----3-5-----|
Bb :| ----0-0-----0-0-|----0-----0-----|----0-0-----0-0-|


C  :----------------|----------------|----------------|----------------|
G  :----------------|----------------|----------------|----------------|
Eb :----------------|----------------|----------------|----------------|
Bb :------3-2---3-2-|----------------|------3-2---3-2-|----------------|
F  :3-5-------------|3-5-----3-5-----|3-5-------------|5---5-5-x-5-8---|
Bb :----0-----0-----|----0-0-----0-0-|----0-----0-----|5---5-5-x-5-8---|

C  :----------------|----------------|----------------|----------------|
G  :----------------|----------------|----------------|----------------|
Eb :----------------|----------------|----------------|----------------|
Bb :----------------|----------------|----------------|----------------|
F  :3-5---5-3---5-3-|3-5-----3-5-----|3-5---5-3---5-3-|5---5-5-x-5-8---|
Bb :----0-----0-----|----0-0-----0-0-|----0-----0-----|5---5-5-x-5-8---|

C  :----------------|----------------|----------------|----------------|
G  :----------------|----------------|----------------|----------------|
Eb :----------------|----------------|----------------|----------------|
Bb :------7-5---7-5-|----------------|------7-5---7-5-|----------------|
F  :3-5-------------|3-5-----3-5-----|3-5-------------|5---5-5-x-5-8---|
Bb :----0-----0-----|----0-0-----0-0-|----0-----0-----|5---5-5-x-5-8---|


C  :------------------*1|-----------------|------------------|
G  :------------------*||-----------------|------------------|
Eb :------------------ ||-----------------|------------------|
Bb :----7---5-7-5----- ||7-----h8-x-x-7---|--h8-x-x-7---h8---|
F  :--8-----------8--- ||5--------x-x-5---|-----x-x-5--------|
Bb :--8--------------- ||5--------x-x-5---|-----x-x-5--------|

C  :------------------*1|-----------------|------------------|
G  :------------------*||-----------------|------------------|
Eb :------------------ ||-----------------|------------------|
Bb :------------------ ||7-----h8-x-x-7---|--h8-x-x-7---h8---|
F  :--8-8---7-8-7----- ||5--------x-x-5---|-----x-x-5--------|
Bb :--8-----------8--- ||5--------x-x-5---|-----x-x-5--------|

C  :------------------*1|-----------------|------------------|
G  :------------------*||-----------------|------------------|
Eb :------------------ ||-----------------|------------------|
Bb :------------------ ||-----------------|------------------|
F  :--8-x------------- ||-----------------|------------------|
Bb :--8-x------------- ||-----------------|------------------|


C  :----------------|----------------|--------------------|
G  :----------------|----------------|--------------------|
Eb :----5-------5---|----------------|--------------------|
Bb :7-x---x-7-x---8-|7-x-7---x-7-7---|--------------------|
F  :----------------|--x-5---x-5-5---|8---10---8-10-8-7---|
Bb :----------------|----5---x-5-5---|8-------------------|

C  :----------------|----------------|--------------------|
G  :----------------|----------------|--------------------|
Eb :----------------|----------------|--------------------|
Bb :----7-------7-5-|--x-7---x-7-7---|-----8---7--8-7-5---|
F  :8-x---x-8-x-----|8-x-5---x-5-5---|8-------------------|
Bb :----------------|----5---x-5-5---|8-------------------|

C  :----------------|----------------|--------------------|
G  :----------------|----------------|--------------------|
Eb :----------------|----------------|--------------------|
Bb :----------------|----------------|--------------------|
F  :----------------|----------------|--------------------|
Bb :----------------|----------------|--------------------|


C  :------------------*1|----------------|---------------------|
G  :------------------*||----------------|---------------------|
Eb :------------------ ||----------------|---------------------|
Bb :------------------ ||------------5---|-5---5------5----5---|
F  :10-10-x-5-5-5-5-5- ||--------0---3---|-3---3------3----3---|
Bb :10-10-x-5-5-5-5-5- ||0---0-----------|---------------------|

C  :------------------*1|----------------|---------------------|
G  :------------------*||----8-----------|---------------------|
Eb :------------------ ||7---------------|10---9-10-9-7--------|
Bb :------------------ ||----------------|----------------10---|
F  :10-10-x-5-5-5-5-5- ||----------------|---------------------|
Bb :10-10-x-5-5-5-5-5- ||----------------|---------------------|

C  :------------------*1|----------------|---------------------|
G  :------------------*||----------------|---------------------|
Eb :------------------ ||----------------|---------------------|
Bb :------------------ ||----------------|---------------------|
F  :------------------ ||----------------|---------------------|
Bb :------------------ ||----------------|---------------------|


C  :-----------------|-----------------|----------------|
G  :-----------------|-----------------|----------------|
Eb :-----------------|-----------------|----------------|
Bb :5---5----5---5---|3----3---3---3---|------------5---|
F  :2---2----2---2---|1----1---1---1---|--------0---3---|
Bb :-----------------|-----------------|0---0-----------|

C  :-----------------|-----------------|----------------|
G  :8-------10-------|8----------------|----8-----------|
Eb :-----------------|----10-----------|7---------------|
Bb :-----------------|-----------------|----------------|
F  :-----------------|-----------------|----------------|
Bb :-----------------|-----------------|----------------|

C  :-----------------|-----------------|----------------|
G  :-----------------|-----------------|----------------|
Eb :-----------------|-----------------|----------------|
Bb :-----------------|-----------------|----------------|
F  :-----------------|-----------------|----------------|
Bb :-----------------|-----------------|----------------|


C  :---------------------|-----------------|-----------------*1|
G  :---------------------|-----------------|---------------3-*||
Eb :---------------------|-----------------|---------2-3-5--- ||
Bb :-5---5------5----5---|5---5----5---5---|0-2--3-5--------- ||
F  :-3---3------3----3---|2---2----2---2---|----------------- ||
Bb :---------------------|-----------------|----------------- ||

C  :---------------------|-----------------|-----------------*1|
G  :---------------------|8-------10-------|8----------------*||
Eb :10---9-10-9-7--------|-----------------|----10----------- ||
Bb :----------------10---|-----------------|----------------- ||
F  :---------------------|-----------------|----------------- ||
Bb :---------------------|-----------------|----------------- ||

C  :---------------------|-----------------|-----------------*1|
G  :---------------------|-----------------|-----------------*||
Eb :---------------------|-----------------|----------------- ||
Bb :---------------------|-----------------|----------------- ||
F  :---------------------|-----------------|----------------- ||
Bb :---------------------|-----------------|----------------- ||


C  :----------------|----------------|----------------|----------------|
G  :----------------|----------------|----------------|----------------|
Eb :----------------|----------------|----------------|----------------|
Bb :----------------|------3-2---3-2-|----------------|------3-2---3-2-|
F  :3-5-----3-5-----|3-5-------------|3-5-----3-5-----|3-5-------------|
Bb :----0-0-----0-0-|----0-----0-----|----0-0-----0-0-|----0-----0-----|

C  :----------------|----------------|----------------|----------------|
G  :----------------|----------------|----------------|----------------|
Eb :----------------|----------------|----------------|----------------|
Bb :----------------|----------------|----------------|----------------|
F  :3-5-----3-5-----|3-5---5-3---5-3-|3-5-----3-5-----|3-5---5-3---5-3-|
Bb :----0-0-----0-0-|----0-----0-----|----0-0-----0-0-|----0-----0-----|

C  :----------------|----------------|----------------|----------------|
G  :----------------|----------------|----------------|----------------|
Eb :----------------|----------------|----------------|----------------|
Bb :----------------|------7-5---7-5-|----------------|------7-5---7-5-|
F  :3-5-----3-5-----|3-5-------------|3-5-----3-5-----|3-5-------------|
Bb :----0-0-----0-0-|----0-----0-----|----0-0-----0-0-|----0-----0-----|


C  :----------------|----------------|----------------|
G  :----------------|----------------|----------------|
Eb :----------------|----------------|----------------|
Bb :----------------|------3-2---3-2-|----------------|
F  :3-5-----3-5-----|3-5-------------|5---5-5-x-5-8---|
Bb :----0-0-----0-0-|----0-----0-----|5---5-5-x-5-8---|

C  :----------------|----------------|----------------|
G  :----------------|----------------|----------------|
Eb :----------------|----------------|----------------|
Bb :----------------|----------------|----------------|
F  :3-5-----3-5-----|3-5---5-3---5-3-|5---5-5-x-5-8---|
Bb :----0-0-----0-0-|----0-----0-----|5---5-5-x-5-8---|

C  :----------------|----------------|----------------|
G  :----------------|----------------|----------------|
Eb :----------------|----------------|----------------|
Bb :----------------|------7-5---7-5-|----------------|
F  :3-5-----3-5-----|3-5-------------|5---5-5-x-5-8---|
Bb :----0-0-----0-0-|----0-----0-----|5---5-5-x-5-8---|


C  :------------------*1|----------------|----------------|
G  :------------------*||----------------|----------------|
Eb :------------------ ||------------5---|----------------|
Bb :----7---5-7-5----- ||------------3---|------------3---|
F  :--8-----------8--- ||0---0---0-0-----|0-----0-0---1---|
Bb :--8--------------- ||0---0---0-0-----|0-----0-0-------|

C  :------------------*1|----------------|----------------|
G  :------------------*||----------------|----------------|
Eb :------------------ ||------------5---|----------------|
Bb :------------------ ||------------3---|------------3---|
F  :--8-8---7-8-7----- ||0---0---0-0-----|0-----0-0---1---|
Bb :--8-----------8--- ||0---0---0-0-----|0-----0-0-------|

C  :------------------*1|----------------|----------------|
G  :------------------*||----------------|----------------|
Eb :------------------ ||----------------|----------------|
Bb :------------------ ||----------------|----------------|
F  :--8-x------------- ||----------------|----------------|
Bb :--8-x------------- ||----------------|----------------|


C  :----------------|----------------|----------------|----------------|
G  :----------------|----------------|----------------|----------------|
Eb :------------5---|----------------|------------5---|----------------|
Bb :------------3---|3-3-3-3-3-3-3-3-|------------3---|------------3---|
F  :0---0---0-0-----|1-1-1-1-1-1-1-1-|0---0---0-0-----|0-----0-0---1---|
Bb :0---0---0-0-----|----------------|0---0---0-0-----|0-----0-0-------|

C  :----------------|----------------|----------------|----------------|
G  :----------------|----------------|----------------|----------------|
Eb :------------5---|----------------|------------5---|----------------|
Bb :------------3---|3-3-3-3-3-3-3-3-|------------3---|------------3---|
F  :0---0---0-0-----|1-1-1-1-1-1-1-1-|0---0---0-0-----|0-----0-0---1---|
Bb :0---0---0-0-----|----------------|0---0---0-0-----|0-----0-0-------|

C  :----------------|----------------|----------------|----------------|
G  :----------------|----------------|----------------|----------------|
Eb :----------------|----------------|----------------|----------------|
Bb :----------------|----------------|----------------|----------------|
F  :----------------|----------------|----------------|----------------|
Bb :----------------|----------------|----------------|----------------|


C  :----------------|----------------*1|----------------|
G  :----------------|--------------3-*||----------------|
Eb :------------5---|--------2-3-5--- ||----------------|
Bb :------------3---|0-2-3-5--------- ||------------5---|
F  :0---0---0-0-----|---------------- ||--------0---3---|
Bb :0---0---0-0-----|---------------- ||0---0-----------|

C  :----------------|----------------*1|----------------|
G  :----------------|----------3-5-6-*||----8-----------|
Eb :------------5---|----2-3-5------- ||7---------------|
Bb :------------3---|3-5------------- ||----------------|
F  :0---0---0-0-----|---------------- ||----------------|
Bb :0---0---0-0-----|---------------- ||----------------|

C  :----------------|----------------*1|----------------|
G  :----------------|----------------*||----------------|
Eb :----------------|---------------- ||----------------|
Bb :----------------|---------------- ||----------------|
F  :----------------|---------------- ||----------------|
Bb :----------------|---------------- ||----------------|


C  :---------------------|-----------------|-----------------|
G  :---------------------|-----------------|-----------------|
Eb :---------------------|-----------------|-----------------|
Bb :-5---5------5----5---|5---5----5---5---|3----3---3---3---|
F  :-3---3------3----3---|2---2----2---2---|1----1---1---1---|
Bb :---------------------|-----------------|-----------------|

C  :---------------------|-----------------|-----------------|
G  :---------------------|8-------10-------|8----------------|
Eb :10---9-10-9-7--------|-----------------|----10-----------|
Bb :----------------10---|-----------------|-----------------|
F  :---------------------|-----------------|-----------------|
Bb :---------------------|-----------------|-----------------|

C  :---------------------|-----------------|-----------------|
G  :---------------------|-----------------|-----------------|
Eb :---------------------|-----------------|-----------------|
Bb :---------------------|-----------------|-----------------|
F  :---------------------|-----------------|-----------------|
Bb :---------------------|-----------------|-----------------|


C  :----------------|---------------------|-----------------|
G  :----------------|---------------------|-----------------|
Eb :----------------|---------------------|-----------------|
Bb :------------5---|-5---5------5----5---|5---5----5---5---|
F  :--------0---3---|-3---3------3----3---|2---2----2---2---|
Bb :0---0-----------|---------------------|-----------------|

C  :----------------|---------------------|-----------------|
G  :----8-----------|---------------------|8-------10-------|
Eb :7---------------|10---9-10-9-7--------|-----------------|
Bb :----------------|----------------10---|-----------------|
F  :----------------|---------------------|-----------------|
Bb :----------------|---------------------|-----------------|

C  :----------------|---------------------|-----------------|
G  :----------------|---------------------|-----------------|
Eb :----------------|---------------------|-----------------|
Bb :----------------|---------------------|-----------------|
F  :----------------|---------------------|-----------------|
Bb :----------------|---------------------|-----------------|


C  :-----------------*1|----------------|----------------|
G  :---------------3-*||----------------|----------------|
Eb :---------2-3-5--- ||----------------|----------------|
Bb :0-2--3-5--------- ||------7-----8---|--7-----7-5-----|
F  :----------------- ||5---------------|------------8-5-|
Bb :----------------- ||--0-0---0-0---0-|0---0-0---------|

C  :-----------------*1|----------------|----------------|
G  :8----------------*||----------------|----------------|
Eb :----10----------- ||----------------|----------------|
Bb :----------------- ||------7-----5---|--------7-8-7-5-|
F  :----------------- ||5---------------|--8-------------|
Bb :----------------- ||--0-0---0-0---0-|0---0-0---------|

C  :-----------------*1|----------------|----------------|
G  :-----------------*||----------------|----------------|
Eb :----------------- ||----------------|----------------|
Bb :----------------- ||----------------|----------------|
F  :----------------- ||----------------|----------------|
Bb :----------------- ||----------------|----------------|


C  :----------------|----------------|----------------|----------------|
G  :----------------|----------------|----------------|----------------|
Eb :----------------|----------------|----------------|----------------|
Bb :----------------|----------------|----------------|--------7-------|
F  :5---5-8-x-5-8---|--8-----7-8-----|5-----7-----8---|--5---------8---|
Bb :5---5---x-5-8---|--8---------0-0-|--0-0---0-0---0-|0---0-0---0-----|

C  :----------------|----------------|----------------|----------------|
G  :----------------|----------------|----------------|----------------|
Eb :----------------|----------------|----------------|----------------|
Bb :----------------|--------5-7-----|------5-----7---|--------7-------|
F  :5---5-8-x-5-8---|--8-------------|8---------------|--8---------8---|
Bb :5---5---x-5-8---|--8---------0-0-|--0-0---0-0---0-|0---0-0---0-----|

C  :----------------|----------------|----------------|----------------|
G  :----------------|----------------|----------------|----------------|
Eb :----------------|----------------|----------------|----------------|
Bb :----------------|----------------|----------------|----------------|
F  :----------------|----------------|----------------|----------------|
Bb :----------------|----------------|----------------|----------------|


C  :----------------|----------------|----------------|----------------|
G  :----------------|----------------|----------------|----------------|
Eb :----------------|----------------|----------------|----------------|
Bb :----------------|----------------|------7-----8---|--7-----7-5-----|
F  :5---5-5-x-5-3---|3-3---x-3-3-----|5---------------|------------8-5-|
Bb :5---5-5-x-5-3---|3-3---x-3-3-0-0-|--0-0---0-0---0-|0---0-0---------|

C  :----------------|----------------|----------------|----------------|
G  :----------------|----------------|----------------|----------------|
Eb :----------------|----------------|----------------|----------------|
Bb :----------------|----------------|------7-----5---|--------7-8-7-5-|
F  :5---5-5-x-5-3---|3-3---x-3-3-----|5---------------|--8-------------|
Bb :5---5-5-x-5-3---|3-3---x-3-3-0-0-|--0-0---0-0---0-|0---0-0---------|

C  :----------------|----------------|----------------|----------------|
G  :----------------|----------------|----------------|----------------|
Eb :----------------|----------------|----------------|----------------|
Bb :----------------|----------------|----------------|----------------|
F  :----------------|----------------|----------------|----------------|
Bb :----------------|----------------|----------------|----------------|


C  :----------------|----------------|----------------|----------------|
G  :----------------|----------------|----------------|----------------|
Eb :----------------|----------------|----------------|----------------|
Bb :----------------|----------------|----------------|--------7-------|
F  :5---5-8-x-5-8---|--8-----7-8-----|5-----7-----8---|--5---------8---|
Bb :5---5---x-5-8---|--8---------0-0-|--0-0---0-0---0-|0---0-0---0-----|

C  :----------------|----------------|----------------|----------------|
G  :----------------|----------------|----------------|----------------|
Eb :----------------|----------------|----------------|----------------|
Bb :----------------|--------5-7-----|------5-----7---|--------7-------|
F  :5---5-8-x-5-8---|--8-------------|8---------------|--8---------8---|
Bb :5---5---x-5-8---|--8---------0-0-|--0-0---0-0---0-|0---0-0---0-----|

C  :----------------|----------------|----------------|----------------|
G  :----------------|----------------|----------------|----------------|
Eb :----------------|----------------|----------------|----------------|
Bb :----------------|----------------|----------------|----------------|
F  :----------------|----------------|----------------|----------------|
Bb :----------------|----------------|----------------|----------------|


C  :----------------|----------------|----------------|----------------|
G  :----------------|----------------|----------------|----------------|
Eb :----------------|----------------|----------------|----------------|
Bb :----------------|----------------|----------------|------7-----8---|
F  :5---5-5-x-5-3---|3-3-3-3-3-3-3-3-|3-3-3-3-3-3-3-3-|5---------------|
Bb :5---5-5-x-5-3---|3-3-3-3-3-3-3-3-|3-3-3-3-3-3-3-3-|--0-0---0-0---0-|

C  :----------------|----------------|----------------|----------------|
G  :----------------|----------------|----------------|----------------|
Eb :----------------|----------------|----------------|----------------|
Bb :----------------|----------------|----------------|------7-----5---|
F  :5---5-5-x-5-3---|3-3-3-3-3-3-3-3-|3-3-3-3-3-3-3-3-|5---------------|
Bb :5---5-5-x-5-3---|3-3-3-3-3-3-3-3-|3-3-3-3-3-3-3-3-|--0-0---0-0---0-|

C  :----------------|----------------|----------------|----------------|
G  :----------------|----------------|----------------|----------------|
Eb :----------------|----------------|----------------|----------------|
Bb :----------------|----------------|----------------|----------------|
F  :----------------|----------------|----------------|----------------|
Bb :----------------|----------------|----------------|----------------|


C  :----------------|----------------|----------------|----------------|
G  :----------------|----------------|----------------|----------------|
Eb :----------------|----------------|----------------|----------------|
Bb :--7-----7-5-----|----------------|----------------|----------------|
F  :------------8-5-|5---5-8-x-5-8---|--8-----7-8-----|5-----7-----8---|
Bb :0---0-0---------|5---5---x-5-8---|--8---------0-0-|--0-0---0-0---0-|

C  :----------------|----------------|----------------|----------------|
G  :----------------|----------------|----------------|----------------|
Eb :----------------|----------------|----------------|----------------|
Bb :--------7-8-7-5-|----------------|--------5-7-----|------5-----7---|
F  :--8-------------|5---5-8-x-5-8---|--8-------------|8---------------|
Bb :0---0-0---------|5---5---x-5-8---|--8---------0-0-|--0-0---0-0---0-|

C  :----------------|----------------|----------------|----------------|
G  :----------------|----------------|----------------|----------------|
Eb :----------------|----------------|----------------|----------------|
Bb :----------------|----------------|----------------|----------------|
F  :----------------|----------------|----------------|----------------|
Bb :----------------|----------------|----------------|----------------|


C  :----------------|----------------|----------------|----------------|
G  :----------------|----------------|----------------|----------------|
Eb :----------------|----------------|----------------|----------------|
Bb :--------7-------|----------------|----------------|------7-----8---|
F  :--5---------8---|5---5-5-x-5-3---|3-3---x-3-3-----|5---------------|
Bb :0---0-0---0-----|5---5-5-x-5-3---|3-3---x-3-3-0-0-|--0-0---0-0---0-|

C  :----------------|----------------|----------------|----------------|
G  :----------------|----------------|----------------|----------------|
Eb :----------------|----------------|----------------|----------------|
Bb :--------7-------|----------------|----------------|------7-----5---|
F  :--8---------8---|5---5-5-x-5-3---|3-3---x-3-3-----|5---------------|
Bb :0---0-0---0-----|5---5-5-x-5-3---|3-3---x-3-3-0-0-|--0-0---0-0---0-|

C  :----------------|----------------|----------------|----------------|
G  :----------------|----------------|----------------|----------------|
Eb :----------------|----------------|----------------|----------------|
Bb :----------------|----------------|----------------|----------------|
F  :----------------|----------------|----------------|----------------|
Bb :----------------|----------------|----------------|----------------|


C  :----------------|----------------|----------------|
G  :----------------|----------------|----------------|
Eb :----------------|----------------|----------------|
Bb :--7-----7-5-----|----------------|----------------|
F  :------------8-5-|5---5-8-x-5-8---|--8-----7-8-----|
Bb :0---0-0---------|5---5---x-5-8---|--8---------0-0-|

C  :----------------|----------------|----------------|
G  :----------------|----------------|----------------|
Eb :----------------|----------------|----------------|
Bb :--------7-8-7-5-|----------------|--------5-7-----|
F  :--8-------------|5---5-8-x-5-8---|--8-------------|
Bb :0---0-0---------|5---5---x-5-8---|--8---------0-0-|

C  :----------------|----------------|----------------|
G  :----------------|----------------|----------------|
Eb :----------------|----------------|----------------|
Bb :----------------|----------------|----------------|
F  :----------------|----------------|----------------|
Bb :----------------|----------------|----------------|


C  :|*----------------|----------------|----------------|
G  :|*----------------|----------------|----------------|
Eb :| ----------------|----------------|----------------|
Bb :| ----------------|--------7-------|----------------|
F  :| 5-----7-----8---|--5---------8---|5---5-5-x-5-3---|
Bb :| --0-0---0-0---0-|0---0-0---0-----|5---5-5-x-5-3---|

C  :|*----------------|----------------|----------------|
G  :|*----------------|----------------|----------------|
Eb :| ----------------|----------------|----------------|
Bb :| ------5-----7---|--------7-------|----------------|
F  :| 8---------------|--8---------8---|5---5-5-x-5-3---|
Bb :| --0-0---0-0---0-|0---0-0---0-----|5---5-5-x-5-3---|

C  :|*----------------|----------------|----------------|
G  :|*----------------|----------------|----------------|
Eb :| ----------------|----------------|----------------|
Bb :| ----------------|----------------|----------------|
F  :| ----------------|----------------|----------------|
Bb :| ----------------|----------------|----------------|


C  :----------------*1|----------------|
G  :----------------*||----------------|
Eb :---------------- ||----------------|
Bb :---------------- ||----------------|
F  :3-3-3-3-3-3-3-3- ||--*-------------|
Bb :3-3-3-3-3-3-3-3- ||--*-------------|

C  :----------------*1|----------------|
G  :----------------*||----------------|
Eb :---------------- ||----------------|
Bb :---------------- ||----------------|
F  :3-3-3-3-3-3-3-3- ||--*-------------|
Bb :3-3-3-3-3-3-3-3- ||--*-------------|

C  :----------------*1|----------------|
G  :----------------*||----------------|
Eb :---------------- ||----------------|
Bb :---------------- ||----------------|
F  :---------------- ||----------------|
Bb :---------------- ||----------------|





Comments


Popular In Flames tabs & chords
Episode 666 2 Bass Tabs
Man Made God Bass Tabs
Zombie 1 Bass Tabs
Acoustic Piece Tabs
Artifacts Of The Black Rain 3 Tabs
Gyroscope 1 Tabs
Jester Script Trancribed Tabs
Jester Script Transfigured Tabs
X-mas Song Tabs
Trigger Ukulele


Song lyrics



↑ Back to top | Tablatures and chords are parodies/interpretations of the original songs. You may use it for private study, scholarship, research or language learning purposes only
© 2014 AZChords.com Contact us | Privacy policy | DMCA | Add/correct tabs | Request tabs | Top 50 tabs