>
 >
Clayman

Clayman Guitar Tabs

In Flames - Clayman chords, tabs, tablatures, lyrics

Guitar lessons | Add/correct | Request | Top 50 tabs Artists:  A B C D E F G H I J K L M N O P Q R S T U V W X Y Z 0-9

Clayman Guitar Tabs – In Flames

CD, Sheet music, Poster

Do you like Clayman? Share with your friends now
Bass TabsBass Tabs v2Bass Tabs v3Bass Tabs v4Bass Tabs v5Tabs
I Noticed Nobody had a GUITAR tab on Clayman, so here it is. Just tune down 2
whole steps and you've got it. The riff procedure is at the end so here ya go.

Riff A
|------------------------------------------|
|------------------------------------------|
|-/555-4~-5-----------/444-5~4-------------|Gtr I
|-----------/555-4~-5----------7~----------|
|------------------------------------------|
|------------------------------------------|
|                                          |
|------------------------------------------|
|------------------------------------------|
|-/555-4~-5-----------/444-----------------|Gtr II
|-----------/555-4~-5------7~5-4~----------|
|------------------------------------------|
|------------------------------------------|
|                                          |
|------------------------------------------|
|------------------------------------------|
|------------------------------------------|Gtr III
|--22222222--55555555------------77777777--|
|--00000000--33333333--55555555--55555555--|
|----------------------33333333------------|


|---------------------00070500000705~------|
|----------------------..-.-.-...-.--------|
|-/555-4~-5--------------------------------|Gtr I
|-----------/555-4~-5----------------------|
|------------------------------------------|
|------------------------------------------|
|                                          |
|---------------------00030200000302~------|
|----------------------..-.-.-...-.--------|
|-/555-4~-5--------------------------------|Gtr II
|-----------/555-4~-5----------------------|
|------------------------------------------|
|------------------------------------------|
|                                          |
|------------------------------------------|
|------------------------------------------|
|------------------------------------------|Gtr III
|--22222222--55555555----------------------|
|--00000000--33333333--2--2-2--2-2-2-------|
|----------------------0000000000000-------|
                                   

Repeat Riff A (Gtr III plays this on repeat)
 |------------------------------------------|
 |------------------------------------------|
 |------------------------------------------|Gtr III
 |--22222222--55555555----------------------|
 |--00000000--33333333--2--2-2--2-2-5-------|
 |----------------------0000000000003-------|


Riff B
|-----------------------------------------------------------------|
|-----------------------------------------------------------------|
|-----------------------------------------------------------------|Gtrs I
|-----------------------------------------------------------------|  & II
|-4-4---4-4-------4-4---4-4-------7-7---7-7-------7-7---7-7-------|
|-2-2-2-2-2-2-222-2-2-2-2-2-2-222-5-5-5-5-5-5-555-5-5-5-5-5-5-555-|

|-----------------------------------------------------------------|
|-----------------------------------------------------------------|
|-----------------------------------------------------------------|Gtrs I
|-----------------------------------------------------------------|  & II
|-4-4---4-4-------4-4---4-4-------7-7---7-7-------3-3---3-5-5---5-|
|-2-2-2-2-2-2-222-2-2-2-2-2-2-222-5-5-5-5-5-5-555-1-1-1-1-3-3-3-3-|

|-----------------------------------------------------------------|
|-----------------------------------------------------------------|
|-----------------------------------------------------------------|Gtrs I
|-----------------------------------------------------------------|  & II
|-4-4---4-4-------4-4---4-4-------7-7---7-7-------7-7---7-7-------|
|-2-2-2-2-2-2-222-2-2-2-2-2-2-222-5-5-5-5-5-5-555-5-5-5-5-5-5-555-|

|-----------------------------------------------------------------|
|-----------------------------------------------------------------|
|-----------------------------------------------------------------|Gtrs I
|-----------------------------------------------------------------|  & II
|-4-4---4-4-------4-4---4-4-------7-7---7-7-------3-3---3-5-5-5---|
|-2-2-2-2-2-2-222-2-2-2-2-2-2-222-5-5-5-5-5-5-555-1-1-1-1-3-3-3---|


Riff C
|------------------------------------------------------------|
|------------------------------------------------------------|
|------------------------------------------------------------|Gtr I
|-6-------------8-------------2--2-2-2-2-2-2-2-2-2-2-2-2-2-2-|
|-4-------------6-------------0--0-0-0-0-0-0-0-0-0-0-0-0-0-0-|
|------------------------------------------------------------|
|                                                            |
|---------0-------------0------------------12-11-9-----------|
|--------------------------------------------------12-10-9---|
|-----6-------6-----8-------8------------------------------9-|Gtr II
|---6---6---6-----8---8---8----------------------------------|
|-4-------------6--------------------------------------------|
|------------------------------------------------------------|
|                                                            |
|-------------------------------------------9----------------|
|---------------------------------------------12-10-9--------|
|-----------------------------------------------------11-9---|Gtr III
|-6-------------8------------------------------------------11|
|-4-------------6--------------------------------------------|
|------------------------------------------------------------|


|------------------------------------------------------------|
|------------------------------------------------------------|
|------------------------------------------------------------|Gtrs I
|-6-------------8-------------9--9-9-9-9-9-9-9-9-9-9-9-9-----| & III
|-4-------------6-------------7--7-7-7-7-7-7-7-7-7-7-7-7-----|
|------------------------------------------------------------|
|                                                            |
|---------0-------------0------------------------------------|
|------------------------------------------------------------|
|-----6-------6-----8-------8--------------------------------|Gtr II
|---6---6---6-----8---8---8---9--9-9-9-9-9-9-9-9-9-9-9-9-----|
|-4-------------6-------------7--7-7-7-7-7-7-7-7-7-7-7-7-----|
|------------------------------------------------------------|


Repeat Riff B (1 Time)
Repeat Riff C (1 Time)
Repeat Riff A (1.75 Times)


Riff D
|----------------------------------------------------------|
|---------------------------------------------------hp-----|
|---------------------2---0--------------------2-4-242-----|Gtr I
|----------5-4~-----------0-----------5-4~-0-4---------5-4-|
|--------5------0-------------------5----------------------|
|-0--5/7----------3-3---3----0--5/7------------------------|
|                                                          |
|----------------------------------------------------------|
|----------------------------------------------------------|
|---------------------2---0-------------------------hp-----|Gtr II
|----------5-4~-----------0-----------5-7~-----4-5-454-----|
|--------5------0-------------------5--------5---------7-5-|
|-0--5/7----------3-3---3----0--5/7--------7---------------|

  

|----------------------------------------------------------|
|----------------------------------------------------------|
|---------------------2---0--------------------------------|Gtr I
|----------5-4~-----------0-----4---4-4-5--5-5-7-----------|
|--------5------0---------------5---5-5-7--7-7-9-----------|
|-0--5/7----------3-3---3----0-----------------------------|
|                                                          |
|----------------------------------------------------------|
|----------------------------------------------------------|
|---------------------2---0--------------------------------|Gtr II
|----------5-4~-----------0-----4---4-4-5--5-5-7-----------|
|--------5------0---------------2---2-2-3--3-3-5-----------|
|-0--5/7----------3-3---3----------------------------------|


Repeat Riff D (1 Time)


Riff E
|----------------------------------9----------9----10-12--------|
|----10----9----------------------------12---------------12fb~--|
|---------------11----9-11-11~--11---11----11---11--------------|Gtr I
|-11----11---11----11-------------------------------------------|
|---------------------------------------------------------------|
|---------------------------------------------------------------|
|                                                               |
|---------------------------------------------------------------|
|---------------------------------------------------------------|
|-------------2-1~---------------------------2-4~-4-4-4-4-4-4-4-|Gtr II
|------------------2------------------------------2-2-2-2-2-2-2-|
|--------------------4-4-4-4-4-4--------------------------------|
|-2-2-2-2-2-2--------------------2-2-2-2-2-2--------------------|



|-------------------------------|
|----10----9--------------------|
|---------------11----9-11-11~--|Gtr I
|-11----11---11----11-----------|
|-------------------------------|
|-------------------------------|
|                               |
|-------------------------------|
|-------------------------------|
|-------------2-1~--------------|Gtr II
|------------------2------------|
|--------------------4-4-4-4-4-4|
|-2-2-2-2-2-2-------------------|


|-9--------------------------------------------|
|---12-10-9------------------------------------|
|-----------11-9-------9--------------------9~-|Gtr I
|----------------12-11---12-11-9---------------|
|--------------------------------12-11-9-------|
|----------------------------------------12----|
|                                              |
|----------------------------------------------|
|10--9-----------------------------------------|
|------11-9------------------------------------|Gtr III
|-----------12-11-9----11-9--------------------|
|-------------------12------12-11-9------------|
|-----------------------------------12-10-9----|
|                                              |
|----------------------------------------------|
|----------------------------------------------|
|------------------2--4~--4--4--4--4--4--4--4--|Gtr II
|-------------------------2--2--2--2--2--2--2--|
|----------------------------------------------|
|-2--2--2--2--2--2-----------------------------|

RIFF PROCEDURE
Repeat Riff D (1 Time)
Repeat Riff B (1 Time)
Repeat Riff A (2 Times)
Repeat last 14 Notes of Riff A (3 Times)





Comments


Popular In Flames tabs & chords
Artifacts Of The Black Rain 1 Bass Tabs
Black And White Tabs
Dismiss The Cynics 1 Tabs
Everlost (Part 2) Tabs
Evil In A Closet Tabs
Goliaths Disarm Their Davids Tabs
Reroute To Remain Intro Tabs
Satellites And Astronauts Tabs
Scream Tabs
Take This Life Tabs


Song lyrics



↑ Back to top | Tablatures and chords are parodies/interpretations of the original songs. You may use it for private study, scholarship, research or language learning purposes only
© 2014 AZChords.com Contact us | Privacy policy | DMCA | Add/correct tabs | Request tabs | Top 50 tabs