» » »

Clad In Shadows Bass tabs (ver.1)

Artists:  A B C D E F G H I J K L M N O P Q R S T U V W X Y Z # 

Clad In Shadows Bass tabs (ver.1)

In Flames
Rating:
0/5 (0 votes)

Hard to play? Try these video lessons and learn fast.
                Tune Down

D#||------|-------------------------------------|
A#||------|-------------------------------------|
F ||------|--0------------------------1---------|
C ||------|--------------------------------3----|


                                                                            
-------------------------------------|-------------------------------------|
-------------------------------------|-------------------------------------|
--0------------------------1---------|--0------------------------1---------|
--------------------------------3----|--------------------------------3----|


                                      
-------------------------------------|
-------------------------------------|
--0------------------------1---------|
--------------------------------3----|


                                                       
------------------------------------------------------|
------------------------------------------------------|
----------8~-----------7~-----------5~-----------7~---|
--0-0-0-0------0-0-0-0------0-0-0-0------0-0-0-0------|


                                                       
------------------------------------------------------|
------------------------------------------------------|
----------8~-----------7~-----------5~-----------7~---|
--0-0-0-0------0-0-0-0------0-0-0-0------0-0-0-0------|


                                                                            
-------------------------------------|-------------------------------------|
-------------------------------------|-------------------------------------|
--0------------------------1---------|--0------------------------1---------|
--------------------------------3----|------------------------------3------|


                                                                            
-------------------------------------|-------------------------------------|
-------------------------------------|-------------------------------------|
--0------------------------1---------|--0------------------------1---------|
--------------------------------3----|--------------------------------3----|


                                           
------------------------------------------|
------------------------------------------|
------------------------------------------|
--0--0----0--0--------0--0----0--0--------|


                                           
------------------------------------------|
------------------------------------------|
------------------------------------------|
--7--7----7--7--------7--7----7--7--------|


                                           
------------------------------------------|
------------------------------------------|
------------------------------------------|
--0--0----0--0--------0--0----0--0--------|


                                           
------------------------------------------|
------------------------------------------|
------------------------------------------|
--7--7----7--7--------7--7----7--7--------|


                                           
------------------------------------------|
------------------------------------------|
------------------------------------------|
--6--6----6--6--------6--6----6--6--------|


                                           
------------------------------------------|
------------------------------------------|
------------------------------------------|
--7--7----7--7--------7--7----7--7--------|


                                           
------------------------------------------|
------------------------------------------|
------------------------------------------|
--0--0----0--0--------0--0----0--0--------|


                                           
------------------------------------------|
------------------------------------------|
------------------------------------------|
--7--7----7--7--------7--7----7--7--------|


                                           
------------------------------------------|
------------------------------------------|
------------------------------------------|
--0--0----0--0--------0--0----0--0--------|


                                           
------------------------------------------|
------------------------------------------|
------------------------------------------|
--7--7----7--7--------7--7----7--7--------|


                                           
------------------------------------------|
------------------------------------------|
------------------------------------------|
--6--6----6--6--------6--6----6--6--------|


                                        
---------------------------------------|
---------------------------------------|
---------------------------------------|
--7--7----7--7--------7----------------|


                                                     
----------------------------------------------------|
----------------------------------------------------|
----------------------------------------------------|
--7--7-7-7--7--7--7--7--7--7--7-7-7--7--7--7--7--7--|


                                                     
----------------------------------------------------|
----------------------------------------------------|
----------------------------------------------------|
--7--7-7-7--7--7--7--7--7--7--7-7-7--7--7--7--7--7--|


                                            
-------------------------------------------|
-------------------------------------------|
-------------------------------------------|
--5----5----5----5----5----5----5--5--5----|


                                            
-------------------------------------------|
-------------------------------------------|
-------------------------------------------|
--5----5----5----5----5----5----5--5--5----|


                                                                              
--------------------------------------|--------------------------------------|
--------------------------------------|--------------------------------------|
--------------------------------------|--------------------------------------|
--7----------------7------------8--5--|--7----------------7------------8--5--|


                                                                            
--------------------------------------|------------------------------------|
--------------------------------------|------------------------------------|
--------------------------------------|------------------------------------|
--7----------------7------------8--5--|--7----------------7----------------|


                                                                            
-------------------------------------|-------------------------------------|
-------------------------------------|-------------------------------------|
--0------------------------1---------|--0------------------------1---------|
--------------------------------3----|--------------------------------3----|


                                             
--------------------------------------------|
--------------------------------------------|
--0------0--0--0----0--0--0----0--1---------|
---------------------------------------3----|


                                             
--------------------------------------------|
--------------------------------------------|
--0------0--0--0----0--0--0----0--1---------|
---------------------------------------3----|


                                                       
------------------------------------------------------|
------------------------------------------------------|
----------8~-----------7~-----------5~-----------7~---|
--0-0-0-0------0-0-0-0------0-0-0-0------0-0-0-0------|


                                                       
------------------------------------------------------|
------------------------------------------------------|
----------8~-----------7~-----------5~-----------7~---|
--0-0-0-0------0-0-0-0------0-0-0-0------0-0-0-0------|


                                             
--------------------------------------------|
--------------------------------------------|
--0------0--0--0----0--0--0----0--1---------|
---------------------------------------3----|


                                             
--------------------------------------------|
--------------------------------------------|
--0------0--0--0----0--0--0----0--1---------|
-------------------------------------3------|


                                             
--------------------------------------------|
--------------------------------------------|
--0------0--0--0----0--0--0----0--1---------|
---------------------------------------3----|


                                             
--------------------------------------------|
--------------------------------------------|
--0------0--0--0----0--0--0----0--1---------|
---------------------------------------3----|


                                           
------------------------------------------|
------------------------------------------|
------------------------------------------|
--0--0----0--0--------0--0----0--0--------|


                                           
------------------------------------------|
------------------------------------------|
------------------------------------------|
--7--7----7--7--------7--7----7--7--------|


                                           
------------------------------------------|
------------------------------------------|
------------------------------------------|
--0--0----0--0--------0--0----0--0--------|


                                           
------------------------------------------|
------------------------------------------|
------------------------------------------|
--7--7----7--7--------7--7----7--7--------|


                                           
------------------------------------------|
------------------------------------------|
------------------------------------------|
--6--6----6--6--------6--6----6--6--------|


                                           
------------------------------------------|
------------------------------------------|
------------------------------------------|
--7--7----7--7--------7--7----7--7--------|


                                                                            
--------------------------------------|------------------------------------|
--------------------------------------|------------------------------------|
--------------------------------------|--2----------------2----------------|
--0--------0--------0--------0--------|------------------------------------|


                                                                            
--------------------------------------|------------------------------------|
--------------------------------------|------------------------------------|
--------------------------------------|--2----------------2----------------|
--0--------0--------0--------0--------|------------------------------------|


                                                                            
--------------------------------------|------------------------------------|
--------------------------------------|------------------------------------|
--1--------1--------1--------1--------|--2----------------2----------------|
--------------------------------------|------------------------------------|


                                                                             
------------------------------------|---------------------------------------|
------------------------------------|---------------------------------------|
--3----------------5----------------|---------------------------------------|
------------------------------------|--0--0--0--0--0~-----------------------|


                                       
------------------|------------------||
------------------|------------------||
------------------|------------------||
------------------|------------------||
            
Hard to play? Try these video lessons and learn fast. | Correct




comments powered by Disqus
↑ Back to top | Tablatures and chords are parodies/interpretations of the original songs. You may use it for private study, scholarship, research or language learning purposes only