>
 >
Black And White

Black And White Guitar Tabs

In Flames - Black And White chords, tabs, tablatures, lyrics

Guitar lessons | Add/correct | Request | Top 50 tabs Artists:  A B C D E F G H I J K L M N O P Q R S T U V W X Y Z 0-9

Black And White Guitar Tabs – In Flames

CD, Sheet music, Poster

Do you like Black And White? Share with your friends now
TabsTabs v2Tabs v3
.  - palm mute           /  - slide up to
\  - slide down to       ~  - vibrato
h  - hammer on           b  - Bend
p  - pull off            Suffixes for bend
t  - tap                 f  - full bend    h - half bend
ph - pinched harmonic    q  - quarter bend t - tap bend
*  - see comment         ^  - Hold bend    r release bend
x  - Stuccatto           ~  - vibrato bend
,  - slight palm mute    () - ghost note, sustained note
"  - tremolo note         - Trill

Tunning drop B

intro
|-------------------------------------------------------------------|
|-------------------------------------------------------------------|
|-------------------------------------------------------------------|
|--------------------3---------------------3------------------------|
|0-0-0-0-0-0-0-0-0-0-1-0-0-0-0-0-0-0-0-0-0-1------------------------|
|0-0-0-0-0-0-0-0-0-0---0-0-0-0-0-0-0-0-0-0--------------------------|

verse
|-------------------------------------------------------------------|
|-------------------------------------------------------------------|
|-------------------------------------------------------------------|
|----------------------7-----------------------7--------------------|
|0-0-0-0-0-0-0-0-0-0-0-5-0-0-0-0-0-0-0-0-0-0-0-5--------------------|
|0-0-0-0-0-0-0-0-0-0-0---0-0-0-0-0-0-0-0-0-0-0----------------------|

pre-chorus
|-------------------------------------------------------------------|
|-------------------------------------------------------------------|
|-------------------------------------------------------------------|
|-------------------------------------------------------------------|
|12-12-12-12-12-12-12-12-12-12-12-12-12-12-12-12-12-12--10-12-13-13-|
|11-11-11-11-11-11-11-11-11-11-11-10-10-10-10-10-10-10--10-12-13-13-|

chorus
|-------------------------------------------------------------------|
|-------------------------------------------------------------------|
|-------------------------------------------------------------------|
|-------------------------------------------------------------------|
|3-5-3-2-2-2-2-2-2-2-2-2-2------------------------------------------|
|3-5-3-2-2-2-2-2-2-2-2-2-2------------------------------------------|

|-------------------------------------------------------------------|
|-------------------------------------------------------------------|
|-------------------------------------------------------------------|
|------------------------------11-11--------------------------------|
|3-5-7-2-3-5-7-9--3-5-7-2-3-5--9-9----------------------------------|
|3-5-7-2-3-5-7-9--3-5-7-2-3-5--9-9----------------------------------|

bridge
|-------------------------------------------------------------------|
|-------------------------------------------------------------------|
|-------------------------------------------------------------------|
|-------------------------------------------------------------------|
|0-.-.-.-0-.-.-.-0-.-.-.-0-0----------------------------------------|
|0-.-.-.-0-.-.-.-0-.-.-.-0-0-3-2-0-5-3-2-3--------------------------|

solo
|-------------------------------------------------------------------|
|-----------------------16-14-16-17-16-14-11-19-18------------------|
|--9-7-9---10-7---7-7-----------------------------------------------|
|--------8----------------------------------------------------------|
|-------------------------------------------------------------------|
|-------------------------------------------------------------------|

|-------------------------------------------------------------------|
|-------------------------------------------------------------------|
|-------------------------------------------------------------------|
|-------------------------------------------------------------------|
|0-.-.-.-0-.-.-.-0-.-.-.-0-0----------------------------------------|
|0-.-.-.-0-.-.-.-0-.-.-.-0-0-3-2-0-5-3-2-3--------------------------|

last chorus
|-------------------------------------------------------------------|
|-------------------------------------------------------------------|
|-------------------------------------------------------------------|
|----------------------------9-9-11-11------------------------------|
|1-3-5-0-1-3-5-8-1-3-5-0-1-3-9-9-9--9-------------------------------|
|1-3-5-0-1-3-5-8-1-3-5-0-1-3-9-9-9--9-------------------------------|

outro
|-------------------------------------------------------------------|
|-------------------------------------------------------------------|
|-------------------------------------------------------------------|
|--------------------3---------------------3------------------------|
|0-0-0-0-0-0-0-0-0-0-1-0-0-0-0-0-0-0-0-0-0-1------------------------|
|0-0-0-0-0-0-0-0-0-0---0-0-0-0-0-0-0-0-0-0--------------------------|


i think this is pretty much right. this is my first tab ive ever submittid.
im 15 years old and ive been playin for about 2 years.  if you have ne





Comments


Popular In Flames tabs & chords
Clayman 5 Bass Tabs
Dialogue With The Stars 1 Bass Tabs
Evil In A Closet 2 Bass Tabs
Zombie 2 Bass Tabs
Another Day In Quicksand Tabs
Bullet Ride 2 Tabs
Crawl Through Knives Intro Tabs
Dreamscape Tabs
Embody The Invisible 1 Tabs
Take This Life 5 Tabs


Song lyrics



↑ Back to top | Tablatures and chords are parodies/interpretations of the original songs. You may use it for private study, scholarship, research or language learning purposes only
© 2014 AZChords.com Contact us | Privacy policy | DMCA | Add/correct tabs | Request tabs | Top 50 tabs