>
 >
Behind Space 1

Behind Space 1 Guitar Tabs

In Flames - Behind Space 1 chords, tabs, tablatures, lyrics

Guitar lessons | Add/correct | Request | Top 50 tabs Artists:  A B C D E F G H I J K L M N O P Q R S T U V W X Y Z 0-9

Behind Space 1 Guitar Tabs – In Flames

CD, Sheet music, Poster

Do you like Behind Space 1? Share with your friends now
Bass TabsTabsTabs v2Tabs v3
.  - palm mute           /  - slide up to
\  - slide down to       ~  - vibrato
h  - hammer on           b  - Bend
p  - pull off            Suffixes for bend
t  - tap                 f  - full bend    h - half bend
ph - pinched harmonic    q  - quarter bend t - tap bend
*  - see comment         ^  - Hold bend    r release bend
x  - Staccato            ~  - vibrato bend
,  - slight palm mute    () - ghost note, sustained note
"  - tremolo note        <> - Trill

Standard D Tuning (tune down all strings one full step)


Riff A
|----------------------------------------|
|----55553355556666-----555533555566666--|
|----------------------------------------|Gtr I
|----------------------------------------|
|-0------------------0-------------------|
|----------------------------------------|
| .                  .                   |
|----------------------------------------|
|----------------------------------------|
|----55554455557777-----555544555577777--|Gtr II
|----------------------------------------|
|-0------------------0-------------------|
|----------------------------------------|
  .                  .

Riff B
|---------------------------------------------|
|---------------------------------------------|
|----9-9-9--7-7--10-10-----9-9-9--10-10--7-7--|Gtrs I
|----9-9-9--7-7--10-10-----9-9-9--10-10--7-7--|  & II
|----7-7-7--5-5---8--8-----7-7-7---8--8--5-5--|
|-0---------------------0---------------------|
  .                     .

Repeat Riff A (1 time)

Repeat Riff B (1 time)

Riff C
|--------------------------------------------------------|
|--------------------------------------------------------|
|-------------7------------7-----------------------------|Gtr I
|-7-----9-----------10-----------10-----9---7---9---10---|
|---0-0---0-0---0-0----0-0---0-0----0-0---0---0---0----0-|
|--------------------------------------------------------|
|   . .   . .   . .    . .   . .    . .   .   .   .    . |
|--------------------------------------------------------|
|--------------------------------------------------------|
|--------------------------------------------------------|Gtr II
|-10-----------9-----------7-----------------------------|
|----0-0-7-0-0---0-0-8-0-0---0-0-8-0-0-10-0-7-0-8-0-10-0-|
|--------------------------------------------------------|
     . .   . .   . .   . .   . .   . .    .   .   .    .

Repeat Riff C (1 time)

Riff D
|--------------------------------------------------------|
|--------------------------------------------------------|
|-------------7------------7-----------------------------|Gtr I
|-7-----9-----------10-----------10-----9---7---9---10---|
|--------------------------------------------------------|
|--------------------------------------------------------|
|                                                        |
|--------------------------------------------------------|
|--------------------------------------------------------|
|--------------------------------------------------------|Gtr II
|-10-----------9-----------7-----------------------------|
|--------7-----------8-----------8-----10---7---8---10---|
|--------------------------------------------------------|

Repeat Riff D (1 time)

Repeat Riff A (1 time)
Repeat Riff B (1 time)
Repeat Riff A (1 time)
Repeat Riff B (1 time)

Riff E
|------------------------------------------------------------------|
|------------------------------------------------------------------|
|---------------4522222200----------------22225555-----------------|Gtr
|-------23222222----------3333333300000000--------22220000---------| I
|-000000--------------------------------------------------3333-----|
|-------------------------------------------------------------3333-|
|                                                                  |
|------------------------------------------------------------------|
|-------------------------------------------------------------3333-|
|---------------455555554422222222----------------444422225555-----|Gtr
|-------23222222------------------3333333300000000-----------------| II
|-000000-----------------------------------------------------------|
|------------------------------------------------------------------|

Repeat Riff E (1 time)

Riff F
|------------------------------------------------------------------|
|------------------------------------------------------------------|
|---------------------------------44445555222255554444555522225555-|Gtr I
|-----0000333322220000333355552222---------------------------------|
|-0000-------------------------------------------------------------|
|------------------------------------------------------------------|
|                                                                  |
|------------------------------------------------------------------|
|------------------------------------------------------------------|
|-----222244445555----555544442222---------------------------------|Gtr II
|-----------------3333------------2222222222223333-----------------|
|-0000--------------------------------------------5555333355551111-|
|------------------------------------------------------------------|

Repeat Riff F (1 time)

Riff G
|------------------------------------------|
|------------------------------------------|
|--2--4-5-2------2------2-4-------4-5-4----|Gtr I
|-----------3--5---3-5------5-2-6-------5--|
|------------------------------------------|
|------------------------------------------|
|                                          |
|------------------------------------------|
|------------------------------------------|
|--2---------------------------------------|Gtr II
|--2--------3--------5---------------------|
|--0--------3--------5--------2-22-2-2-2-2-|
|-----------1--------3--------0-00-0-0-0-0-|
                              . .. . . . .

Repeat Riff G (1 time)




Riff H
|------------------------------------------|
|------------------------------------------|
|--2--4-5-2------2------2-4-------4-5-4----|Gtr I
|-----------3--5---3-5------5-2-6-------5--|
|------------------------------------------|
|------------------------------------------|
|                                          |
|------------------------------------------|
|------------------------------------------|
|--5--7-9-5------5------5-7-------7-9-7----|Gtr II
|-----------7--9---7-9------9-5-9-------9--|
|------------------------------------------|
|------------------------------------------|

Repeat Riff H (1 time)

Repeat Riff G (2 times)

Repeat Riff A (1 time)
Repeat Riff B (1 time)
Repeat Riff A (1 time)
Repeat Riff B (1 time)

Repeat Riff C (2 times)

Repeat Riff D (2 times)


Riff I
|------------------------------------------------------------------|
|------------------------------------------------------------------|
|---------------------------------3---------------3-3--------------|Gtr I
|---------------------------------3---------------3-3--------------|
|-2-2-------------2-2-------------1---------------1-1--------------|
|-0-0-------------0-0----------------------------------------------|
| . .             . .                             . *              |
|------------------------------------------------------------------|
|------------------------------------------------------------------|
|------------------------------------------------------------------|Gtr II
|------------------------------------------------------------------|
|---2---2---2---2---2---2---2---2---1---1---1---1---1---1---1---1--|
|-0---3---0---3---0---3---0---3---0---2---0---2---0---2---0---2----|
  .   .   .   .   .   .   .   .   .   .   .   .   .   .   .   .

Repeat Riff I (1 time)

Riff J
|------------------------------------------------------------------|
|------------------------------------------------------------------|
|------------------------------------------------------------------|Gtr I
|------------------------------------------------------------------|
|---2---2---2---2---2---2---2---2---1---1---1---1---1---1---1---1--|
|-0---3---0---3---0---3---0---3---0---2---0---2---0---2---0---2----|
| .   .   .   .   .   .   .   .   .   .   .   .   .   .   .   .    |
|-----------------------------------------22222222--------22222222-|
|------------------------------------------------------------------|
|-0000224444004444000022444400444433333333--------33333333---------|Gtr II
|------------------------------------------------------------------|
|------------------------------------------------------------------|
|------------------------------------------------------------------|

Repeat Riff J (1 time)

Riff K

|------------------------------------------------------------------|
|------------------------------------------------------------------|Gtr I
|------------------------------------------------------------------|
|---2---2---2---2---2---2---2---2---1---1---1---1---1---1---1---1--|
|-0---3---0---3---0---3---0---3---0---2---0---2---0---2---0---2----|
|------------------------------------------------------------------|
| .   .   .   .   .   .   .   .   .   .   .   .   .   .   .   .    |
|-----------------------------------------22222222--------22222222-|
|------------------------------------------------------------------|
|-2222445555225555222244555522555544444444--------44444444---------|Gtr II
|------------------------------------------------------------------|
|------------------------------------------------------------------|
|------------------------------------------------------------------|


Repeat Riff K (1 time)

Solo Riff 1
|-----------------------------------------------|
|-----------------------------------------------|
|-4----------------------4----------------------|Gtr I
|---7-5-4---4-6--6h7-6~----7-5-4---4-6--6h7-6~--|
|---------7----------------------7--------------|
|-----------------------------------------------|
|                                               |
|-----------------------------------------------|
|-------------4--4h5-4~--------------4--4h5-4~--|
|---------4----------------------4--------------|Gtr II
|---4-5-7---7--------------4-5-7---7------------|
|-7----------------------7----------------------|
|-----------------------------------------------|
|                                               |
|-----------------------------------------------|
|-----------------------------------------------|
|-----------------------------------------------|Gtr III
|-2-----------6----------2-----------6----------|
|-2-----------6----------2-----------6----------|
|-0-----------4----------0-----------4----------|


Solo Riff 2
|----------------------------------4p2p0-4p2p0-4p2p0-4p2p0--/97h9h7--|
|-4h5p4-1h3p1-0h1p0-1h3p1-5--4--5-------------------------------------|
|---------------------------------------------------------------------|Gtr I
|---------------------------------------------------------------------|
|---------------------------------------------------------------------|
|---------------------------------------------------------------------|
|                                                                     |
|---------------------------------------------------------------------|
|-4h5p4-1h3p1-0h1p0-1h3p1-5--4--5--5p4p2-5p4p2-5p4p2-5p4p2-/109h10h9-|
|---------------------------------------------------------------------|Gtr II
|---------------------------------------------------------------------|
|---------------------------------------------------------------------|
|---------------------------------------------------------------------|
|                                                                     |
|---------------------------------------------------------------------|
|---------------------------------------------------------------------|
|-2------2-----2---2------2-----2---6------6-----6---6------6-----6---|Gtr III
|-2------2-----2---2------2-----2---6------6-----6---6------6-----6---|
|-0--0-0-0-0-0-0-0-0--0-0-0-0-0-0-0-4--4-4-4-4-4-4-4-4--4-4-4-4-4-4-4-|
|---------------------------------------------------------------------|
     . .   . .   .    . .   . .   .    . .   . .   .    . .   . .   .


Repeat Solo Riff 2 (1 time)

Solo Riff 3
|-7-----5h7p5------8--p7p5-8p7p5-8p7p5-7~--------5h7p5----------------|
|-------------------------------------------------------8----7----5\--|
|---------------------------------------------------------------------|Gtrs I
|---------------------------------------------------------------------|  & II
|---------------------------------------------------------------------|
|---------------------------------------------------------------------|
|                                                                     |
|---------------------------------------------------------------------|
|---------------------------------------------------------------------|
|---------------------------------------------------------------------|Gtr III
|-7-----10-----10---7-----10-----10---7-----9-----9---7-----9-----9---|
|-0-0-0----0-0----0---0-0----0-0----0-6-6-6---6-6---6-6-6-6---6-6---6-|
|---------------------------------------------------------------------|
    . .    . .    .   . .    . .    .   . .   . .   .   . .   . .   .

Repeat Solo Riff 3 (1 time)


Solo Riff 4
|----------------------------------------------------------------------|
|---------------------8------------------------------------------------|
|-----------7--------------7-9---7------8~-------------8~--------------|Gtr I
|----5-7-5-----5-7-5----10---------10----------------------------------|
|-7--------------------------------------------------------------------|
|----------------------------------------------------------------------|
|                                                                      |
|----------------------------------------------------------------------|
|--------------------12------------------------------------------------|
|----------12-----------9-11-12--11-9---11~------------11~-------------|Gtr II
|-9-9-10-9----9-10-9---------------------------------------------------|
|----------------------------------------------------------------------|
|----------------------------------------------------------------------|
| . . .  .    . .  .                                                   |
|----------------------------------------------------------------------|
|----------------------------------------------------------------------|
|----------------------------------------------------------------------|
|----------------------------------------------------------------------|Gtr III
|-7-----10-----10---7-----10-----10---7-----9-----9---7-----9-----9----|
|-0-0-0----0-0----0-0-0-0----0-0----0-6-6-6---6-6---6-6-6-6---6-6---6--|
    . .    . .    .   . .    . .    .   . .   . .   .   . .   . .   .

Repeat Solo Riff 4 (1 time)

Repeat Riff A (1 time)
Repeat Riff B (1 time)
Repeat Riff A (1 time)

Ending
|---------------------------------------------|
|---------------------------------------------|
|----9-9-9--7-7--10-10-----9-9-9-10--5-7------|Gtrs I
|----9-9-9--7-7--10-10-----9-9-9-10--5-7--5-7-|  & II
|----7-7-7--5-5---8--8-----7-7-7--8--3-5--5-7-|
|-0---------------------0-----------------3-5-|
  .                     .





Comments


Popular In Flames tabs & chords
Bulletride Bass Tabs
Dawn Of A New Day Bass Tabs
Only For The Weak Bass Tabs
Acoustic Medley 1 Tabs
Clayman Tabs
Clayman 2 Tabs
Cloud Connected 2 Tabs
Everything Counts Tabs
Jotun 2 Tabs
Reflect The Storm 2 Tabs


Song lyrics



↑ Back to top | Tablatures and chords are parodies/interpretations of the original songs. You may use it for private study, scholarship, research or language learning purposes only
© 2014 AZChords.com Contact us | Privacy policy | DMCA | Add/correct tabs | Request tabs | Top 50 tabs