>
 >
Behind Space

Behind Space Bass Tabs

In Flames - Behind Space chords, tabs, tablatures, lyrics

Guitar lessons | Add/correct | Request | Top 50 tabs Artists:  A B C D E F G H I J K L M N O P Q R S T U V W X Y Z 0-9

Behind Space Bass Tabs – In Flames

CD, Sheet music, Poster

Do you like Behind Space? Share with your friends now
Bass TabsTabsTabs v2Tabs v3
In Flames
Colony

/ - slide up to       \ - slide down to
h - hammer on         p - pull off
^ - bend


Intro:
-------------------------------------------------------------|
-------------------------------------------------------------|
-0----------0-----12\0---7-7-7-5-5-8-8--7-7-7-8-8-5-5--------|
-------------------------------------------------------------|

-------------------------------------------------------------|
-------------------------------------------------------------|
-0---------0-0----12\0---7-7-7-5-5-8-8--7-7-7-8-8-5-5--------|
-------------------------------------------------------------|

Verse 1:
-------------------------------------------------------------|
-------------------------------------------------------------|
-000-000-000-000-000-000--3-1-3-4----------------------------|   (2x)
-------------------------------------------------------------|

Verse 2:
-------------------------------------------------------------|
-------------------------------------------------------------|
-0-2-5-3-5-3-2-0-2-3-----------------------------------------|   (2x)
-------------------------------------------------------------|

Back to Intro:
-------------------------------------------------------------|
-------------------------------------------------------------|
-0----------0-----12\0---7-7-7-5-5-8-8--7-7-7-8-8-5-5--------|
-------------------------------------------------------------|

-------------------------------------------------------------|
-------------------------------------------------------------|
-0---------0-0----12\0---7-7-7-5-5-8-8--7-7-7-8-8-5-5--------|
-------------------------------------------------------------|

Verse 3:

---------------222222----------------000-222-----------------|
--------222222--------3333333-000000---------222-000---------|
-000000----------------------------------------------333-----|   (2x)
---------------------------------------------------------333-|

Verse 4:
-------------------------------------------------------------|
---------333333--000000-555555-------------------------------|
-000000------------------------------------------------------|
-------------------------------555555-333333-222222-000000---|

Verse 5:
-------------------------------------------------------------|
-------------------------------------------------------------|
-0-----------------------------------------------------------|   (4x)
------1----3-----0-------------------------------------------|

Verse 6:
-------------------------------------------------------------|
-------------------------------------------------------------|
-0-----------------------------------------------------------|   (2x)
------111----3---0-000-000-----------------------------------|

Back to Intro:
-------------------------------------------------------------|
-------------------------------------------------------------|
-0----------0-----12\0---7-7-7-5-5-8-8--7-7-7-8-8-5-5--------|
-------------------------------------------------------------|

-------------------------------------------------------------|
-------------------------------------------------------------|
-0---------0-0----12\0---7-7-7-5-5-8-8--7-7-7-8-8-5-5--------|
-------------------------------------------------------------|

Verse 1:
-------------------------------------------------------------|
-------------------------------------------------------------|
-000-000-000-000-000-000--3-1-3-4----------------------------|   (2x)
-------------------------------------------------------------|

Verse 2:
-------------------------------------------------------------|
-------------------------------------------------------------|
-0-2-5-3-5-3-2-0-2-3-----------------------------------------|   (2x)
-------------------------------------------------------------|

Verse 7:
-------------------------------------------------------------|
-------------------------------------------------------------|
----------------1----1-1-------------------------------------|   (2x)
-0-0-----0-0-------------------------------------------------|

Verse 8:
-------------------------------------------------------------|
-------------------------------------------------------------|
-12\0-----------1-----------------1--------------------------|
---------0----------------0----------------------------------|

Bass Lead:
-------------------------------------------------------------|
-----------------------------15-12--12-12-12---12------------|
--12-0-0-0-00---0h12p0-15p14----------------------5^---------|   
-------------------------------------------------------------|

-------------------------------------------------------------|
--------------------------15-12--12-12-12---12---------------|
--0-0-0-00---0h12p0-15p14----------------------5^------------|   
-------------------------------------------------------------|

Verse 9:
-------------------------------------------------------------|
-------------------------------------------------------------|
-------------------------------------------------------------|
-0-------4-------0--------4----------------------------------|

Verse 10:

-------------------------------------------------------------|
-------------------------------------------------------------|
-0000-0000-0000-0000-4444-4444-4444-4444---------------------|  
-------------------------------------------------------------|

-------------------------------------------------------------|
-------------------------------------------------------------|
-0000-0000-0000-0000-4444-4444-4444-4444-4/12\4--------------|  
-------------------------------------------------------------|

-------------------------------------------------------------|
-------------------------------------------------------------|
-0000-0000-0000-0000-6666-6666-6666-6666---------------------|  
-------------------------------------------------------------|

-------------------------------------------------------------|
-------------------------------------------------------------|
-0000-0000-0000-0000-6666-6666-6666/14-14-14-14--------------|  
-------------------------------------------------------------|

Verse 9:
-------------------------------------------------------------|
-------------------------------------------------------------|
-------------------------------------------------------------|
-0-------4-------0--------4----------------------------------|

Outro:
-------------------------------------------------------------|
-------------------------------------------------------------|
-0----------0-----12\0---7-7-7-5-5-8-8--7-7-7-8-8-5-5--------|
-------------------------------------------------------------|

-------------------------------------------------------------|
-------------------------------------------------------------|
-0---------0-0----12\0---7-7-7-5-5-8-8--7-7-7-8-7-5-3-0------|
-------------------------------------------------------------|





Comments


Popular In Flames tabs & chords
Evil In A Closet 2 Bass Tabs
Satellites And Astonauts Bass Tabs
Satellites And Astronauts Bass Tabs
Brush The Dust Away 1 Tabs
Clayman 2 Tabs
Embody The Invisible 1 Tabs
Man Made God Tabs
Pinball Map Tabs
The New Word Tabs
Vanishing Light Tabs


Song lyrics



↑ Back to top | Tablatures and chords are parodies/interpretations of the original songs. You may use it for private study, scholarship, research or language learning purposes only
© 2014 AZChords.com Contact us | Privacy policy | DMCA | Add/correct tabs | Request tabs | Top 50 tabs