>
 >
...As The Future Repeats Today

...As The Future Repeats Today Guitar Tabs

In Flames - ...As The Future Repeats Today chords, tabs, tablatures, lyrics

Guitar lessons | Add/correct | Request | Top 50 tabs Artists:  A B C D E F G H I J K L M N O P Q R S T U V W X Y Z 0-9

...As The Future Repeats Today Guitar Tabs – In Flames

CD, Sheet music, Poster

Do you like ...As The Future Repeats Today? Share with your friends now
Tabs
----------------------------------------------------------------------------
                     As The Future Repeats Today - In Flames
----------------------------------------------------------------------------

Tuning: Drop D, Two steps down: Bb F Bb Eb G C

Intro:
|---------------------------------------------------------------|
|---------------------------------------------------------------|
|---------------------------------------------------------------|
|--03575-888887770-xxxxxx-888877--------------------------------|
|--03575-888887770-xxxxxx-888877--------------------------------|
|--03575-888887770-xxxxxx-888877--------------------------------| x2
         
        Pre-Verse:
|-------|----------------------------------------|
|-------|----------------------------------------|
|-------|----------------------------------------|
|--0357-|---------------3585---------------3585--|
|--0357-|---------------3585---------------3585--|
|--0357-|---000---000---3585---000---000---3585--|
            P.M   P.M          P.M   P.M
Verse:
|-------------------------------------------------------------------------|
|-------------------------------------------------------------------------|
|2-----2----------2-----2------------------------------6---6/9------------|
|----3----------------3------------5-----3---5----5--7---7------11----11--|
|----------5----------------5--------------------------------------12-----|
|--0-----0---0-0----0-----0---0-0----3-3---3---3--------------------------|
  P.M   P.M  P.M   P.M   P.M  P.M    P.M  P.M P.M

|------------------------------------------------------------------------|
|------------------------------------------------------------------------|
|2-----2----------2-----2------------------------------------------------|
|----3----------------3------------5-----3---5----5/8-7------------------|
|----------5----------------5---------------------------10-8-10---8-7----|
|--0-----0---0-0----0-----0---0-0----3-3---3---3-------------------------|
  P.M   P.M  P.M   P.M   P.M  P.M    P.M  P.M P.M

|-------------------------------------------------------------------------|
|-------------------------------------------------------------------------|
|2-----2----------2-----2------------------------------6---6/9------------|
|----3----------------3------------5-----3---5----5--7---7------11----11--|
|----------5----------------5--------------------------------------12-----|
|--0-----0---0-0----0-----0---0-0----3-3---3---3--------------------------|
  P.M   P.M  P.M   P.M   P.M  P.M    P.M  P.M P.M

|------------------------------------------------------------------------|
|------------------------------------------------------------------------|
|2-----2----------2-----2------------------------------------------------|
|----3----------------3------------5-----3---5----5/8-7------------------|
|----------5----------------5---------------------------10-8-10---8-7----|
|--0-----0---0-0----0-----0---0-0----3-3---3---3-------------------------|
  P.M   P.M  P.M   P.M   P.M  P.M    P.M  P.M P.M

Pre-Chorus:
|------------------------------------------------------|
|------------------------------------------------------|
|-------------7-----7---5----------------7-----9---10--|
|--88888777-----------7---7--88888777------------7----7|
|--88888777------------------88888777------------------|
|--88888777--0---0-0---------88888777--0---0-0---------|
            P.M  P.M                  P.M  P.M
|----------------------------------------------------------|
|---------------------------------------------------8-10---|
|-------------7-----7---5-----------------7-9-10-7-------7-|
|--88888777-----------7---7--88888777---7------------------|
|--88888777------------------88888777----------------------|
|--88888777--0---0-0---------88888777----------------------|
            P.M  P.M                  
Chorus:
|-----------|   |----------------------------------------------------------|
|-----------|   |----------------------------------------------------------|
|--77777777-|   |----------------------------------------------------------|
|--77777777-|   |--88888888--88888888--000000000000000--88888888-55557777--|
|--55555555-|   |--88888888--xxxxxxxx--000000000000000--88888888-55557777--|
|--00000000-|x2 |--88888888--88888888--000000000000000--88888888-55557777--|

|-------------------------------------|
|-------------------------------------|
|-------------------------------------|
|-000000000000000--88888888-55555555--|
|-000000000000000--88888888-55555555--|
|-000000000000000--88888888-55555555--|

|-------------------------------------|
|-------------------------------------|
|-------------------------------------|
|-000000000000000--88888888-55557777--|
|-000000000000000--88888888-55557777--|
|-000000000000000--88888888-55557777--|

Pre-Verse:
|----------------------------------------|
|----------------------------------------|
|----------------------------------------|
|---------------3585---------------3585--|
|---------------3585---------------3585--|
|---000---000---3585---000---000---3585--|
    P.M   P.M          P.M   P.M
Verse:
|-------------------------------------------------------------------------|
|-------------------------------------------------------------------------|
|2-----2----------2-----2------------------------------6---6/9------------|
|----3----------------3------------5-----3---5----5--7---7------11----11--|
|----------5----------------5--------------------------------------12-----|
|--0-----0---0-0----0-----0---0-0----3-3---3---3--------------------------|
  P.M   P.M  P.M   P.M   P.M  P.M    P.M  P.M P.M

|------------------------------------------------------------------------|
|------------------------------------------------------------------------|
|2-----2----------2-----2------------------------------------------------|
|----3----------------3------------5-----3---5----5/8-7------------------|
|----------5----------------5---------------------------10-8-10---8-7----|
|--0-----0---0-0----0-----0---0-0----3-3---3---3-------------------------|
  P.M   P.M  P.M   P.M   P.M  P.M    P.M  P.M P.M

|-------------------------------------------------------------------------|
|-------------------------------------------------------------------------|
|2-----2----------2-----2------------------------------6---6/9------------|
|----3----------------3------------5-----3---5----5--7---7------11----11--|
|----------5----------------5--------------------------------------12-----|
|--0-----0---0-0----0-----0---0-0----3-3---3---3--------------------------|
  P.M   P.M  P.M   P.M   P.M  P.M    P.M  P.M P.M

|------------------------------------------------------------------------|
|------------------------------------------------------------------------|
|2-----2----------2-----2------------------------------------------------|
|----3----------------3------------5-----3---5----5/8-7------------------|
|----------5----------------5---------------------------10-8-10---8-7----|
|--0-----0---0-0----0-----0---0-0----3-3---3---3-------------------------|
  P.M   P.M  P.M   P.M   P.M  P.M    P.M  P.M P.M

Pre-Chorus:
|------------------------------------------------------|
|------------------------------------------------------|
|-------------7-----7---5----------------7-----9---10--|
|--88888777-----------7---7--88888777------------7----7|
|--88888777------------------88888777------------------|
|--88888777--0---0-0---------88888777--0---0-0---------|
            P.M  P.M                  P.M  P.M
|----------------------------------------------------------|
|---------------------------------------------------8-10---|
|-------------7-----7---5-----------------7-9-10-7-------7-|
|--88888777-----------7---7--88888777---7------------------|
|--88888777------------------88888777----------------------|
|--88888777--0---0-0---------88888777----------------------|
            P.M  P.M

Chorus:
|-----------|   |----------------------------------------------------------|
|-----------|   |----------------------------------------------------------|
|--77777777-|   |----------------------------------------------------------|
|--77777777-|   |--88888888--88888888--000000000000000--88888888-55557777--|
|--55555555-|   |--88888888--xxxxxxxx--000000000000000--88888888-55557777--|
|--00000000-|x2 |--88888888--88888888--000000000000000--88888888-55557777--|

|-------------------------------------|
|-------------------------------------|
|-------------------------------------|
|-000000000000000--88888888-55555555--|
|-000000000000000--88888888-55555555--|
|-000000000000000--88888888-55555555--|

|-------------------------------------|
|-------------------------------------|
|-------------------------------------|
|-000000000000000--88888888-55557777--|
|-000000000000000--88888888-55557777--|
|-000000000000000--88888888-55557777--|

Solo:
|-----------------------------------------------------15------------------|
|-----------------------------------15-------15----------15--16-15-13-----|
|--------------12-14-15-14-12----------15-12----15-12-----------------15~-|
|-----------12----------------12~-----------------------------------------|
|--10-12-13---------------------------------------------------------------|
|-------------------------------------------------------------------------|

|--------------------------------------------------18-15----15-18-15-18-15|
|--15-11----11-15-11-15-11----15-20-15-20-15----15-------18---------------|
|--------12----------------12----------------15---------------------------|
|-------------------------------------------------------------------------|
|-------------------------------------------------------------------------|
|-------------------------------------------------------------------------|

|----15-18-15-18-15----15------------------15---17--18-17-15--------------|
|-18----------------18----18^-------18^----------------------18-16-15-----|
|-------------------------------------------------------------------------|
|-------------------------------------------------------------------------|
|-------------------------------------------------------------------------|
|-------------------------------------------------------------------------|

|-------------------------------------------------------------------------|
|--18-16-15---------------------------------------------------------------|
|-----------17-15----17-15------------12----10-12----13----12-10----------|
|-----------------19-------19-17---13----13-------13----13-------13~--13--|
|-------------------------------------------------------------------------|
|-------------------------------------------------------------------------|

|-------------------------------------------------------------------------|
|-12----10-12----/12------------------------------------------------------|
|----13-------13-----15-13h15p13-12-------13-12----12----10-12----13------|
|-----------------------------------15-13-------13----13-------13----13---|
|-------------------------------------------------------------------------|
|-------------------------------------------------------------------------|

|-----------------10-10/11------11-13-13/15-13h15p13-11-13-|
|--------------13-------------13---------------------------|
|-/15-12----12---------------------------------------------|
|----------------------------------------------------------|
|----------------------------------------------------------|
|----------------------------------------------------------|

Chorus:
|-------------------------------------------------------|
|-------------------------------------------------------|
|-------------------------------------------------------|
|-88888888-88888888-0000000000000000-88888888-55557777--|
|-88888888-xxxxxxxx-0000000000000000-88888888-55557777--|
|-88888888-88888888-0000000000000000-88888888-55557777--|

|--------------------------------------------------------------|
|--------------------------------------------------------------|
|--------------------------------------------------------------|
|-0000000000000000-88888888-55555555-0000000000000000-88888888-|
|-0000000000000000-88888888-55555555-0000000000000000-88888888-|
|-0000000000000000-88888888-55555555-0000000000000000-88888888-|

Outro:
|------------------------------|
|------------------------------|
|------------------------------|
|-55-7---55-7---55-7---0-------|
|-55-7---55-7---55-7---0-------|
|-55-7---55-7---55-7---0-------|

| /  slide up
| \  slide down
| h  hammer-on
| p  pull-off
| ~  vibrato
| <> natural harmonic, [] artificial harmonic
| x  Mute note
|P.M Palm Mute
|^ Bend (full)
======================================================================





Comments


Popular In Flames tabs & chords
Bullet Ride Bass Tabs
Episode 666 2 Bass Tabs
Jotun 2 Bass Tabs
Jotun 6 Bass Tabs
Acoustic Medley Tabs
Come Clarity 2 Tabs
Sleepless Again Tabs
Take This Life 6 Tabs
Trigger 1 Tabs
Whoracle Tabs


Song lyrics



↑ Back to top | Tablatures and chords are parodies/interpretations of the original songs. You may use it for private study, scholarship, research or language learning purposes only
© 2014 AZChords.com Contact us | Privacy policy | DMCA | Add/correct tabs | Request tabs | Top 50 tabs