>
 >
Another Day In Quicksand

Another Day In Quicksand Guitar Tabs

In Flames - Another Day In Quicksand chords, tabs, tablatures, lyrics

Guitar lessons | Add/correct | Request | Top 50 tabs Artists:  A B C D E F G H I J K L M N O P Q R S T U V W X Y Z 0-9

Another Day In Quicksand Guitar Tabs – In Flames

CD, Sheet music, Poster

Do you like Another Day In Quicksand? Share with your friends now
TabsTabs v2Tabs v3
Tuning: 2 steps down (C F A# D# G C)

Intro
|----------------------------------------------------------|
|----------------------------------------------------------|
|----------------------------------------------------------|Gtr I
|--------------------------------------------------777777--|
|--------555777--------555777--------777555-000000---------|
|-000000--------777777--------888888-----------------------|
|                                                          |
|----------------------------------------------------------|
|----------------------------------------------------------|
|--------------------------------------------------555555--|Gtr II
|--------444555--------444555--------555444----777---------|
|-------------------------------------------000------------|
|-000000--------777777--------888888-----------------------|


|----------------------------------------------------------|
|----------------------------------------------------------|
|----------------------------------------------------------|Gtr I
|----------------------------------------------------------|
|--------555777--------555777--------777555----5-5----5-5--|
|-000000--------777777--------888888--------333-3--222-2---|
|                                                          |
|----------------------------------------------------------|
|----------------------------------------------------------|
|----------------------------------------------------------|Gtr II
|--------444555--------444555--------555444----------------|
|----------------------------------------------5-5----5-5--|
|-000000--------777777--------888888--------333-3--222-2---|




Verse
|----------------------------------------------------|
|----------------------------------------------------|
|----------------------------------------------------|Gtrs I
|----555555555444555555555---777777754222222222-4----|  & II
|----777777777555555555555000333333333333333333-3----|
|-000------------------------------------------------|


|----------------------------------------------------|
|----------------------------------------------------|
|--------------------------------------------42------|Gtr I
|-555555555555444555555555---777777754222222---542---|
|-777777777777555555555555000333333333333333------5--|
|----------------------------------------------------|
|                                                    |
|----------------------------------------------------|
|----------------------------------------------------|
|----------------------------------------------------|Gtr II
|-555555555555444555555555---777777754222222-542-----|
|-777777777777555555555555000333333333333333----532--|
|----------------------------------------------------|

|----------------------------------------------------|
|----------------------------------------------------|
|----------------------------------------------------|Gtr I
|-555555555555444555555555---777777754222222222-4----|  
|-777777777777555555555555000333333333333333333-3----|
|----------------------------------------------------|
|                                                    |
|----------------------------------------------------|
|----------------------------------------------------|
|-------------222444444444222555555544----------2----|Gtr II
|-555555555555------------------------555555555------|  
|----------------------------------------------------|
|----------------------------------------------------|


|----------------------------------------------------|
|----------------------------------------------------|
|--------------------------------------------42------|Gtr I
|-555555555555444555555555---777777754222222---542---|
|-777777777777555555555555000333333333333333------5--|
|----------------------------------------------------|
|                                                    |
|----------------------------------------------------|
|----------------------------------------------------|
|-------------222444444444222555555544---------------|Gtr II
|-555555555555------------------------555555-542-----|  
|-----------------------------------------------532--|
|----------------------------------------------------|


Chorus
|------------------------------------------|
|------------------------------------------|
|------------------------------------------|Gtrs I
|------------------------------------------|  & II
|-----33-------33-------5--7--5--2--3------|
|-111-11---111-11---111-3--5--3--0--1------|


|-----------------------------------------------|
|-----------------------------------------------|
|-----------------------------------------------|Gtr I
|--------------------------------------5--7-----|
|-----33-------33-------5--------------3--5--2--|
|-111-11---111-11---111-3--5~-3~-0--1~-------0--|
|                                               |
|-----------------------------------------------|
|-----------------------------------------------|
|-----------------------------------------------|Gtr II
|--------------------------------------5--7-----|
|-----33-------33-------5--3~-2~-------3--5--2--|
|-111-11---111-11---111-3--------3~-5~-------0--|



Solo 1
|--------------------141714--14-----17-19-21-22fb-|
|-17fb+r17fb+r17fb-17------17--17fb---------------|
|-------------------------------------------------|Gtr I
|-------------------------------------------------|
|-------------------------------------------------|
|-------------------------------------------------|
|                                                 |
|--------------------141714--14-------------------|
|-17fb+r17fb+r17fb-17------17--17fb-19-21-22-22fb-|
|-------------------------------------------------|Gtr II
|-------------------------------------------------|
|-------------------------------------------------|
|-------------------------------------------------|


|-17-16-14----------------------------------------|
|----------17-15-14-17-15-14----------------------|
|----------------------------16-14----------------|Gtr I
|----------------------------------18-17~---------|
|-------------------------------------------------|
|-------------------------------------------------|
|                                                 |
|-14----------------------------------------------|
|----17-15-14-------14----------------------------|
|-------------16-14----16-14-13-12----------------|Gtr II
|----------------------------------15-14~---------|
|-------------------------------------------------|
|-------------------------------------------------|

Bridge build up to solo
|--------------------------------|
|--------------------------------|
|--------------------------------|Gtr I
|--------------------------2-----|
|-----------------2-3~-3-5---2~--|
|-1~-1-3/5-3~-3-5----------------|
|                                |
|--------------------------------|
|--------------------------------|
|--------------------------------|Gtr II
|-------------------2~-2-3-5-----|
|----------2~-2-3-5----------5~--|
|-1~-1-3/5-----------------------|


|--------------------------------|
|--------------------------------|
|--------------------------------|
|--------------------------------|Gtr I
|--------------------------------|
|-1~-1-3/5-3~-3-5/7-5~-5-7-3-5~--|
|                                |
|--------------------------------|
|--------------------------------|
|--------------------------------|Gtr II
|--------------------------------|
|----------2~-2-3-5-3~-3-5-2-3~--|
|-1~-1-3/5-----------------------|


Solo 2 (Incomplete)
|-----------------------------------------|
|---------hp------------------------------|
|-12~-10-9109---------hp-------12fb+r+fb~-|Gtr I
|-------------12~-10-9109-----------------|
|-------------------------12~-------------|
|-----------------------------------------|
|                                         |
|-----------------------------------------|
|---------hp-------------------12hb+r+hb~-|
|-12~-10-9109---------hp------------------|Gtr II
|-------------12~-10-9109-----------------|
|-------------------------12~-------------|
|-----------------------------------------|
|                                         |
|-----------------------------------------|
|-----------------------------------------|
|-----------------------------------------|Gtr III
|-----------------------------------------|  
|-----33-------33-------5-----------------|
|-111-11---111-11---111-3-----------------|


|--------------------------------------------------|
|---------hp-------------------13----12------------|
|-12~-10-9109---------------------------14-12-12fb-|Gtrs I
|-------------12~-10-12-/14~------14---------------|  & II
|--------------------------------------------------|
|--------------------------------------------------|
|                                                  |
|--------------------------------------------------|
|--------------------------------------------------|
|--------------------------------------------------|Gtr III
|--------------------------------------------------|  
|-----33-------33-------5--------------------------|
|-111-11---111-11---111-3--------------------------|

                          hp   
|-17----------15-17-/20-192019-17-16~-|
|----15-17-18-------------------------|
|-------------------------------------|Gtr I
|-------------------------------------|
|-------------------------------------|
|-------------------------------------|
|                                     |
|-------------------------------------|
|-------------------------hp----------|
|-14----------12-14-/17-161716-14-13~-|Gtr II
|----12-14-15-------------------------|
|-------------------------------------|
|-------------------------------------|

Riff G
|-------------------------------------------------------------------------|
|-------------------------------------------------------------------------|
|-17~--17-19-/21-16~--16-17-19--17----17-/19----19-/21----21-22-21-22-22fb|
|----------------------------------17--------17--------22-----------------|
|-------------------------------------------------------------------------|
|-------------------------------------------------------------------------|
|                                                                         |
|-------------------------------------------------------------------------|
|-17~--17-18-/20---------17-18--17----17-/18----18-/20-17-20-22-20-22-22fb|
|----------------19~--19-----------17--------17---------------------------|
|-------------------------------------------------------------------------|
|-------------------------------------------------------------------------|
|-------------------------------------------------------------------------|

|------------------------------------------------------------|
|------------------------------------------------------------|
|------------------------------------------------------------|Gtr I
|-5---5-5-5--------7---------------------5---5-5-5-----------|
|-3---3-3-3---5----5----------7----------3---3-3-3---5-------|
|-------------3---------------5----------------------3-------|
|                                                            |
|------------------------------------------------------------|
|------------------------------------------------------------|
|------------------------------------------------------------|Gtr II
|-5---5-5-5--------7---------------------5---5-5-5-----------|
|-3---3-3-3---5----5--5-7-/8--7---7-7----3---3-3-3---5---5-5-|
|-------------3---------------5---5-5----------------3---3-3-|


|-------------------------|
|-------------------------|
|-------------------------|Gtrs I 
|-------------------------|  & II
|-----33------33------5---|
|-111-11--111-11--111-3---|


|-----------------------------------------------------|
|-----------------------------------------------------|
|-----------------------------------------------------|Gtr I
|---------------------------------------542---542-----|
|-----33-------33-------5------33----------532---532--|
|-111-11---111-11---111-3--111-11---111---------------|
|                                                     |
|-----------------------------------------------------|
|-----------------------------------------------------|
|---------------------------------------------420-----|Gtr I
|---------------------------------------542------420--|
|-----33-------33-------5------33----------532--------|
|-111-11---111-11---111-3--111-11---111---------------|

With verse 3
|--------------hp------------------------------------hp-------|
|-1212121212-101210----------10-----12-12--13-10-12-101210----|
|-------------------12-11-12----12~------------------------12-|Gtr III
|-------------------------------------------------------------|
|-------------------------------------------------------------|
|-------------------------------------------------------------|
|                                                             |
|-------------------------------------------------------------|
|--------------hp-------------------------------------hp------|
|-1212121212-111211----------11-----12-12--14-11-12-111211----|Gtr IV
|-------------------14-12-14----14~------------------------14-|
|-------------------------------------------------------------|
|-------------------------------------------------------------|


|--------------hp-------------------|
|-1212121212-101210----------10-----|
|-------------------12-11-12----12~-|Gtr III
|-----------------------------------|
|-----------------------------------|
|-----------------------------------|
|                                   |
|-----------------------------------|
|--------------hp-------------------|
|-1212121212-111211----------11-----|Gtr IV
|-------------------14-12-14----14~-|
|-----------------------------------|
|-----------------------------------|

End oN
|------|
|------|
|------|Gtrs I
|-2----|  & II
|-2----|
|-0----|





Comments


Popular In Flames tabs & chords
Bulletride Bass Tabs
Goliaths Disarm Their Davids Bass Tabs
Strong And Smart Bass Tabs
The Hive Bass Tabs
The Jester Race 2 Bass Tabs
Insipid 2000 Tabs
Reroute To Remain Tabs
The Jesters Dance 1 Tabs
Varmlandsvisan Tabs
Come Clarity Ukulele


Song lyrics



↑ Back to top | Tablatures and chords are parodies/interpretations of the original songs. You may use it for private study, scholarship, research or language learning purposes only
© 2014 AZChords.com Contact us | Privacy policy | DMCA | Add/correct tabs | Request tabs | Top 50 tabs