>
 >
A New Dawn

A New Dawn Guitar Tabs

In Flames - A New Dawn chords, tabs, tablatures, lyrics

Guitar lessons | Add/correct | Request | Top 50 tabs Artists:  A B C D E F G H I J K L M N O P Q R S T U V W X Y Z 0-9

A New Dawn Guitar Tabs – In Flames

CD, Sheet music, Poster

Do you like A New Dawn? Share with your friends now
Tabs
New Dawn                                    
In Flames

C ||---------------------------------------|----------------------------------|
G ||---------------------------------------|----------------------------------|
D#||*--10---9h-10p-9---------------------9-|--10---9---12---10---9-10-9-------|
A#||*-----------------12---10------10-12---|----------------------------12-10-|
F ||----------------------------12---------|----------------------------------|
A#||---------------------------------------|----------------------------------|


                                                                |--3-|        2X
C |--------------------------------------|------------------------------------||
G |--------------------------------------|------------------------------------||
D#|--10---9h-10p-9---------------------9-|-----------------10---9-10-9-------*||
A#|-----------------12---10------10-12---|-----------------------------12-10-*||
F |--------------------------12----------|--10---12---13----------------------||
A#|--------------------------------------|------------------------------------||


C |-------------------|
G |-------------------|
D#|-------------------|
A#|--0----------------|
F |--0----------------|
A#|--0----------------|

                                                                            2X
C ||-----------------------------------|------------------------------------||
G ||-----------------------------------|------------------------------------||
D#||*----------------------------------|-----------------------------------*||
A#||*----------------------------------|-----------------------------------*||
F ||--8-----5-----7------10---8---7----|--8-----5-----7------10---8---10----||
A#||----0-0---0-0-8--0-0----0---0---0--|----0-0---0-0-8--0-0----0---0----0--||


C |--------------------------------|--------------------------------|
G |--------------------------------|--------------------------------|
D#|--------------------------------|--------------------------------|
A#|--------------------------------|--------------------------------|
F |--5----------5----------5-3-5-7-|--5----------5----------5-3-5-7-|
A#|----0-0-0------0-0-0------------|----0-0-0------0-0-0------------|


C |--------------------------------|--------------------------------|
G |--------------------------------|--------------------------------|
D#|--------------------------------|--------------------------------|
A#|--------------------------------|--3----------3----------3-2-3-5-|
F |--8----------5----------5-3-5-7-|----1-1-1------1-1-1------------|
A#|----0-0-0------0-0-0------------|--------------------------------|


C |----------------------------------|---------------------------------|
G |----------------------------------|---------------------------------|
D#|----------------------------------|---------------------------------|
A#|----------------------------------|---------------------------------|
F |--8----------8----------8-7-8-10--|--8----------8----------8-7-8-10-|
A#|----0-0-0------0-0-0--------------|----0-0-0------0-0-0-------------|

                                                                       
C |----------------------------------|--------------------------------|
G |----------------------------------|--------------------------------|
D#|----------------------------------|--------------------------------|
A#|----------------------------------|--7----------7----------7-5-7-8-|
F |--12----------8----------8-7-8-10-|--------------------------------|
A#|-----0-0-0------0-0-0-------------|----8-8-8------8-8-8------------|

C |----------------------------------|---------------------------------|
G |----------------------------------|---------------------------------|
D#|----------------------------------|---------------------------------|
A#|--7-------------------------------|---------------------------------|
F |-------------8----------8-7-8-10--|--8----------8----------8-7-8-10-|
A#|----0-0-0------0-0-0--------------|----0-0-0------0-0-0-------------|

                                                                       
C |----------------------------------|--------------------------------|
G |----------------------------------|--------------------------------|
D#|----------------------------------|--------------------------------|
A#|----------------------------------|--7----------7----------7-5-7-8-|
F |--12----------8----------8-7-8-10-|--------------------------------|
A#|-----0-0-0------0-0-0-------------|----8-8-8------8-8-8------------|


C |--------------------------------|------------------------------|
G |--------------------------------|------------------------------|
D#|--------------------------------|------------------------------|
A#|--/7---5h-7p-5----------------5-|--/7---5---/8---7---5-7-5-----|
F |----------------8---7---5-7-8---|--------------------------8-7-|
A#|--------------------------------|------------------------------|


C |--------------------------------|------------------------|
G |--------------------------------|------------------------|
D#|--------------------------------|------------------------|
A#|--/7---5h-7p-5----------------5-|--------------2---3-----|
F |----------------8---7---5-7-8---|--1---3---5-------------|
A#|--------------------------------|------------------------|

                                              2X
C |-------------------------------------------||
G |--10p-8---10p-8---10p-8---10p-8---10p-8----||
D#|----------------------------------------10-||
A#|-------------------------------------------||
F |-------------------------------------------||
A#|-------------------------------------------||

                                              2X
C |-------------------------------------------||
G |-------------------------------------------||
D#|--10p-9---10p-9---10p-9---10p-9---10p-9-12-||
A#|-------------------------------------------||
F |-------------------------------------------||
A#|-------------------------------------------||


                                              2X 
C |-------------------------------------------||
G |--10p-8---10p-8---10p-8---10p-8---10p-8----||
D#|----------------------------------------10-||
A#|-------------------------------------------||
F |-------------------------------------------||
A#|-------------------------------------------||


C |------------------------------------------------|
G |--13p-11---13p-11---13p-11---13p-11---13p-11-10-|
D#|------------------------------------------------|
A#|------------------------------------------------|
F |------------------------------------------------|
A#|------------------------------------------------|


C |------------------------------------------------|
G |--11p-10---11p-10---11p-10---11p-10---11p-10-8--|
D#|------------------------------------------------|
A#|------------------------------------------------|
F |------------------------------------------------|
A#|------------------------------------------------|


C |---------------------------------------|-----------------------------------|
G |---------------------------------------|-----------------------------------|
D#|--10---9h-10p-9---------------------9--|--10---9---12---10---9-10-9--------|
A#|-----------------12---10------10-12----|----------------------------12-10--|
F |----------------------------12---------|-----------------------------------|
A#|---------------------------------------|-----------------------------------|


                                                                |--3-|              
C |--------------------------------------|------------------------------------|
G |--------------------------------------|------------------------------------|
D#|--10---9h-10p-9---------------------9-|-----------------10---9-10-9--------|
A#|-----------------12---10------10-12---|-----------------------------12-10--|
F |--------------------------12----------|--10---12---13----------------------|
A#|--------------------------------------|------------------------------------|
 
C |----------------------------------|---------------------------------|
G |----------------------------------|---------------------------------|
D#|----------------------------------|---------------------------------|
A#|----------------------------------|---------------------------------|
F |--8----------8----------8-7-8-10--|--8----------8----------8-7-8-10-|
A#|----0-0-0------0-0-0--------------|----0-0-0------0-0-0-------------|

                                                                       
C |----------------------------------|--------------------------------|
G |----------------------------------|--------------------------------|
D#|----------------------------------|--------------------------------|
A#|----------------------------------|--7----------7----------7-5-7-8-|
F |--12----------8----------8-7-8-10-|--------------------------------|
A#|-----0-0-0------0-0-0-------------|----8-8-8------8-8-8------------|

C |----------------------------------|---------------------------------|
G |----------------------------------|---------------------------------|
D#|----------------------------------|---------------------------------|
A#|--7-------------------------------|---------------------------------|
F |-------------8----------8-7-8-10--|--8----------8----------8-7-8-10-|
A#|----0-0-0------0-0-0--------------|----0-0-0------0-0-0-------------|

                                                                       
C |----------------------------------|--------------------------------|
G |----------------------------------|--------------------------------|
D#|----------------------------------|--------------------------------|
A#|----------------------------------|--7----------7----------7-5-7-8-|
F |--12----------8----------8-7-8-10-|--------------------------------|
A#|-----0-0-0------0-0-0-------------|----8-8-8------8-8-8------------|


C |--------------------------------|------------------------------|
G |--------------------------------|------------------------------|
D#|--------------------------------|------------------------------|
A#|--/7---5h-7p-5----------------5-|--/7---5---/8---7---5-7-5-----|
F |----------------8---7---5-7-8---|--------------------------8-7-|
A#|--------------------------------|------------------------------|


C |--------------------------------|------------------------|
G |--------------------------------|------------------------|
D#|--------------------------------|------------------------|
A#|--/7---5h-7p-5----------------5-|--------------2---3-----|
F |----------------8---7---5-7-8---|--1---3---5-------------|
A#|--------------------------------|------------------------|

                                              2X
C |-------------------------------------------||
G |--10p-8---10p-8---10p-8---10p-8---10p-8----||
D#|----------------------------------------10-||
A#|-------------------------------------------||
F |-------------------------------------------||
A#|-------------------------------------------||

                                              2X
C |-------------------------------------------||
G |-------------------------------------------||
D#|--10p-9---10p-9---10p-9---10p-9---10p-9-12-||
A#|-------------------------------------------||
F |-------------------------------------------||
A#|-------------------------------------------||


                                              2X 
C |-------------------------------------------||
G |--10p-8---10p-8---10p-8---10p-8---10p-8----||
D#|----------------------------------------10-||
A#|-------------------------------------------||
F |-------------------------------------------||
A#|-------------------------------------------||


C |------------------------------------------------|
G |--13p-11---13p-11---13p-11---13p-11---13p-11-10-|
D#|------------------------------------------------|
A#|------------------------------------------------|
F |------------------------------------------------|
A#|------------------------------------------------|


C |------------------------------------------------|
G |--11p-10---11p-10---11p-10---11p-10---11p-10-8--|
D#|------------------------------------------------|
A#|------------------------------------------------|
F |------------------------------------------------|
A#|------------------------------------------------|



C |------------------------------|
G |------------------------------|
D#|--14--------12--12h--14--14S--|
A#|------------------------------|
F |------------------------------|
A#|------------------------------|


c |-----------------------------|-------------------------|
G |-----------------------------|-------------------------|
D#|--10--10--------14--14S--12--|--12--------10--10--9----|
A#|-----------------------------|-------------------------|
F |-----------------------------|-------------------------|
A#|-----------------------------|-------------------------|


C |--------------------------|------------------------------|
G |--------------------------|------------------------------|
D#|--9--------9--10--12--14--|--14--------12--12h--14--14S--|
A#|--------------------------|------------------------------|
F |--------------------------|------------------------------|
A#|--------------------------|------------------------------|


C |-----------------------------|-------------------------|
G |-----------------------------|-------------------------|
D#|--10--10--------14--14S--12--|--12--------10--10--9----|
A#|-----------------------------|-------------------------|
F |-----------------------------|-------------------------|
A#|-----------------------------|-------------------------|


C |--------------------------|--------------------------|
G |--------------------------|--------------------------|
D#|--9--------9--10--12--14--|--14-------12~--------14--|
A#|--------------------------|--------------------------|
F |--------------------------|--------------------------|
A#|--------------------------|--------------------------|


C |---------------------------|--------------------------|
G |-------------------13--13--|--12----------------------|
D#|--------12~----------------|--------14----------------|
A#|---------------------------|------------14~-----------|
F |---------------------------|--------------------------|
A#|---------------------------|--------------------------|



C |--------------------------|---------------------------|
G |--------------------------|-------------------13--13--|
D#|--14-------12~--------14--|--------12~----------------|
A#|--------------------------|---------------------------|
F |--------------------------|---------------------------|
A#|--------------------------|---------------------------|


C |--------------------------|
G |--12----------------------|
D#|--------14--14~-----------|
A#|--------------------------|
F |--------------------------|
A#|--------------------------|


              |---3---|                           |---3---|                 
C |-----------------------------------|------------------------------------|
G |-/15------13h-15p-13-12-13~--------|-/15------13h-15p-13-13~-12---------|
D#|-----------------------------------|--------------------------------12--|
A#|-----------------------------------|------------------------------------|
F |-----------------------------------|------------------------------------|
A#|-----------------------------------|------------------------------------|


                                               |--3--|             
C |----------------------------|----------------------------------|
G |----------------------------|--12------13--12-13-12------------|
D#|--14~--------------------7--|-----------------------14--12~----|
A#|-----------------/7-9-10----|----------------------------------|
F |----------------------------|----------------------------------|
A#|----------------------------|----------------------------------|


              |---3---|                           |---3---|                
C |-----------------------------------|-------------------------------------|
G |-/15------13h-15p-13-12-13~--------|-/15------13h-15p-13-13-12---15--/18-|
D#|-----------------------------------|-------------------------------------|
A#|-----------------------------------|-------------------------------------|
F |-----------------------------------|-------------------------------------|
A#|-----------------------------------|-------------------------------------|


C |----------------------------------|
G |--17------------13-12-------------|
D#|----------------------12----------|
A#|-------------------------14-12~---|
F |----------------------------------|
A#|----------------------------------|


              |--3-|                          |--3-|                
C |-------------------------------|--------------------------------|
G |-------------------------------|--------------------------------|
D#|-/10~------9-10-9----9~--------|--10~------9-10-9----9~---------|
A#|------------------12-----------|------------------12--------12--|
F |-------------------------------|--------------------------------|
A#|-------------------------------|--------------------------------|

 
                                              |--3--|         
C |------------------------|--------------------------------|
G |------------------------|--------------------------------|
D#|------------------------|-------------9----7h-9p-7-------|
A#|--(9)--10~--------------|--12~---------------------9--7--|
F |------------------------|--------------------------------|
A#|------------------------|--------------------------------|


              |--3-|                          |--3-|                 
C |-------------------------------|---------------------------------|
G |-------------------------------|---------------------------------|
D#|-/10~------9-10-9----9~--------|--10~------9-10-9----9~----/12~--|
A#|------------------12-----------|------------------12-------------|
F |-------------------------------|---------------------------------|
A#|-------------------------------|---------------------------------|

               
C |---------------------|---------------------|
G |---------------------|--/12~---------------|
D#|--/14~---------------|---------------------|
A#|---------------------|---------------------|
F |---------------------|---------------------|
A#|---------------------|---------------------|


              |---3---|
C |-----------------------------------|
G |-/15------13h-15p-13-12-13~--------|
D#|-----------------------------------|
A#|-----------------------------------|
F |-----------------------------------|
A#|-----------------------------------|



                  |---3---|                                              
C |----------------------------------------|----------------------------|
G |--13b--13b----13h-15p-13-13~----12------|----------------------------|
D#|------------------------------------12--|--14~--------------------7--|
A#|----------------------------------------|-----------------/7-9-10----|
F |----------------------------------------|----------------------------|
A#|----------------------------------------|----------------------------|


                  |--3--|                        |---3---|                
C |----------------------------------|-----------------------------------|
G |--12------13--12-13-12------------|-/15------13h-15p-13-12-13~--------|
D#|-----------------------14--12~----|-----------------------------------|
A#|----------------------------------|-----------------------------------|
F |----------------------------------|-----------------------------------|
A#|----------------------------------|-----------------------------------|


                  |---3---|                                                   
C |-----------------------------------------|--------------------------------|
G |--13b--13b----13h-15p-13-13-12---15--/18-|----17--------13-12-------------|
D#|-----------------------------------------|--------------------12----------|
A#|-----------------------------------------|-----------------------14-12~---|
F |-----------------------------------------|--------------------------------|
A#|-----------------------------------------|--------------------------------|


             |---3---|                          |---3---|                
C |---------------------------------|-----------------------------------|
G |---------------------------------|-/15------13h-15p-13-12--13~-------|
D#|---------------------------------|-----------------------------------|
A#|---------10h-12p-10S-9-10--9~----|-----------------------------------|
F |---------------------------------|-----------------------------------|
A#|---------------------------------|-----------------------------------|


              |---3---|                                              
C |------------------------------------|----------------------------|
G |-/15------13h-15p-13-13~----12------|----------------------------|
D#|--------------------------------12--|--14~--------------------7--|
A#|------------------------------------|-----------------/7-9-10----|
F |------------------------------------|----------------------------|
A#|------------------------------------|----------------------------|


                  |--3--|                        |---3---|                
C |----------------------------------|-----------------------------------|
G |--12------13--12-13-12------------|-/15------13h-15p-13-12--13~-------|
D#|-----------------------14--12~----|-----------------------------------|
A#|----------------------------------|-----------------------------------|
F |----------------------------------|-----------------------------------|
A#|----------------------------------|-----------------------------------|


              |---3---|                                                   
C |---------------------------------------|------------------------------|
G |-/15------13h-15p-13-13--12---15---/18-|--17--------13-12-------------|
D#|---------------------------------------|------------------12----------|
A#|---------------------------------------|---------------------14-12~---|
F |---------------------------------------|------------------------------|
A#|---------------------------------------|------------------------------|



C |---------------------------------------|-----------------------------------|
G |---------------------------------------|-----------------------------------|
D#|-/10---9h-10p-9---------------------9--|--10---9--/12---10---9-10-9--------|
A#|-----------------12---10------10-12----|----------------------------12-10--|
F |----------------------------12---------|-----------------------------------|
A#|---------------------------------------|-----------------------------------|


                                                                |--3-|              
C |--------------------------------------|------------------------------------|
G |--------------------------------------|------------------------------------|
D#|--10---9h-10p-9---------------------9-|-----------------10---9-10-9--------|
A#|-----------------12---10------10-12---|-----------------------------12-10--|
F |--------------------------12----------|--10---12---13----------------------|
A#|--------------------------------------|------------------------------------|

                                     
C |-----------------------------------|------------------------------------|
G |-/10---8h-10p-8------------------8-|--10---8---13---11---10-11-10-------|
D#|-----------------10---9---7-9-10---|------------------------------12-10-|
A#|-----------------------------------|------------------------------------|
F |-----------------------------------|------------------------------------|
A#|-----------------------------------|------------------------------------|


                                                             |--3-|    
C |-----------------------------------|-----------------------------------|
G |--10---8h-10p-8------------------8-|-----------------------------------|
D#|-----------------10---9---7-9-10---|-----------------10---9-10-9-------|
A#|-----------------------------------|-----------------------------12-10-|
F |-----------------------------------|--10---12---13---------------------|
A#|-----------------------------------|-----------------------------------|



C |-------------------|
G |-------------------|
D#|-------------------|
A#|--0----------------|
F |--0----------------|
A#|--0----------------|


                                                                            2X
C ||-----------------------------------|------------------------------------||
G ||-----------------------------------|------------------------------------||
D#||*----------------------------------|-----------------------------------*||
A#||*----------------------------------|-----------------------------------*||
F ||--8-----5-----7------10---8---7----|--8-----5-----7------10---8---10----||
A#||----0-0---0-0-8--0-0----0---0---0--|----0-0---0-0-8--0-0----0---0----0--||


C |----------------------------------|---------------------------------|
G |----------------------------------|---------------------------------|
D#|----------------------------------|---------------------------------|
A#|----------------------------------|---------------------------------|
F |--8----------8----------8-7-8-10--|--8----------8----------8-7-8-10-|
A#|----0-0-0------0-0-0--------------|----0-0-0------0-0-0-------------|

                                                                       
C |----------------------------------|--------------------------------|
G |----------------------------------|--------------------------------|
D#|----------------------------------|--------------------------------|
A#|----------------------------------|--7----------7----------7-5-7-8-|
F |--12----------8----------8-7-8-10-|--------------------------------|
A#|-----0-0-0------0-0-0-------------|----8-8-8------8-8-8------------|


C |--------------------------------|------------------------------|
G |--------------------------------|------------------------------|
D#|--------------------------------|------------------------------|
A#|--/7---5h-7p-5----------------5-|--/7---5---/8---7---5-7-5-----|
F |----------------8---7---5-7-8---|--------------------------8-7-|
A#|--------------------------------|------------------------------|


C |--------------------------------|------------------------|
G |--------------------------------|------------------------|
D#|--------------------------------|------------------------|
A#|--/7---5h-7p-5----------------5-|--------------2---3-----|
F |----------------8---7---5-7-8---|--1---3---5-------------|
A#|--------------------------------|------------------------|


                                              2X
C |-------------------------------------------||
G |--10p-8---10p-8---10p-8---10p-8---10p-8----||
D#|----------------------------------------10-||
A#|-------------------------------------------||
F |-------------------------------------------||
A#|-------------------------------------------||

                                              2X
C |-------------------------------------------||
G |-------------------------------------------||
D#|--10p-9---10p-9---10p-9---10p-9---10p-9-12-||
A#|-------------------------------------------||
F |-------------------------------------------||
A#|-------------------------------------------||


                                              2X 
C |-------------------------------------------||
G |--10p-8---10p-8---10p-8---10p-8---10p-8----||
D#|----------------------------------------10-||
A#|-------------------------------------------||
F |-------------------------------------------||
A#|-------------------------------------------||


C |------------------------------------------------|
G |--13p-11---13p-11---13p-11---13p-11---13p-11-10-|
D#|------------------------------------------------|
A#|------------------------------------------------|
F |------------------------------------------------|
A#|------------------------------------------------|


C |------------------------------------------------|
G |--11p-10---11p-10---11p-10---11p-10---11p-10-8--|
D#|------------------------------------------------|
A#|------------------------------------------------|
F |------------------------------------------------|
A#|------------------------------------------------|

                                              2X
C |-------------------------------------------||
G |--10p-8---10p-8---10p-8---10p-8---10p-8----||
D#|----------------------------------------10-||
A#|-------------------------------------------||
F |-------------------------------------------||
A#|-------------------------------------------||

                                              2X
C |-------------------------------------------||
G |-------------------------------------------||
D#|--10p-9---10p-9---10p-9---10p-9---10p-9-12-||
A#|-------------------------------------------||
F |-------------------------------------------||
A#|-------------------------------------------||


                                              2X 
C |-------------------------------------------||
G |--10p-8---10p-8---10p-8---10p-8---10p-8----||
D#|----------------------------------------10-||
A#|-------------------------------------------||
F |-------------------------------------------||
A#|-------------------------------------------||


C |------------------------------------------------|
G |--13p-11---13p-11---13p-11---13p-11---13p-11-10-|
D#|------------------------------------------------|
A#|------------------------------------------------|
F |------------------------------------------------|
A#|------------------------------------------------|


C |------------------------------------------------|
G |--11p-10---11p-10---11p-10---11p-10---11p-10-8--|
D#|------------------------------------------------|
A#|------------------------------------------------|
F |------------------------------------------------|
A#|------------------------------------------------|




Tablature Legend
----------------

h - hammer on
p - pull off
b - bend
~ - vibrato     





Comments


Popular In Flames tabs & chords
Behinged Space Bass Tabs
Dawn Of A New Day Bass Tabs
Dead Eternity 2 Bass Tabs
Touch Of Red Bass Tabs
Trigger 2 Bass Tabs
Alias Tabs
Bottled Tabs
Clad In Shadows 9 Tabs
Lunar Strain Tabs
The New Word 1 Tabs


Song lyrics



↑ Back to top | Tablatures and chords are parodies/interpretations of the original songs. You may use it for private study, scholarship, research or language learning purposes only
© 2014 AZChords.com Contact us | Privacy policy | DMCA | Add/correct tabs | Request tabs | Top 50 tabs