» » »

Acoustic Piece Tabs (ver.1)

Artists:  A B C D E F G H I J K L M N O P Q R S T U V W X Y Z # 

Acoustic Piece Tabs (ver.1)

In Flames
Rating:
5/5 (8 votes)

Tabs too difficult? Try these video lessons and learn fast.
                                               IN FLAMES
                            ACOUSTIC PIECE

         A beutiful piece by In Flames.
         I have not done this my self, i took the material to this 
         tab and my guitarpro tab from the powertab verison.
    
         x - staccato
         r - let ring 
         harm - Natural Harmonic
         8va - 8va

         Guitar - Acoustic steel
         Rhythm - 6/8
         Tempo  - 72 bpm
         Tuning - D A F C G D

                                x         x
|-0------0--2------2--|-5---3-2-3--3----0-2--|-5--3--2--3--2-----|
|-0---0---------0-----|----------------------|----------------4--|
|---------------------|----------------------|-------------------|
|-2r--------1r--------|-0r---------2r--------|-3r-------2r-------|
|---------------------|----------------------|-------------------|
|---------------------|----------------------|-------------------|
      8va-------------|
      harm------------|         x          x            x          x
|-0---12--------------|-3-------3--2-------2--|-2-------2--5---3-2-0--|
|---------12----------|-------0----------0----|-------0---------------|
|-------------12------|-----0----------2------|-----2-----------------|
|---------------------|-2r---------1r---------|-0r--------------------|
|---------------------|-----------------------|------------0r---------|
|-0r------------------|-----------------------|-----------------------|

          x          x            x          x
|-3-------3--2-------2--|-2-------2--5---3-2-0--|
|-------0----------0----|-------0---------------|
|-----0----------2------|-----2-----------------|
|-2r---------1r---------|-0r--------------------|
|-----------------------|------------0r---------|
|-----------------------|-----------------------|

         x         x                            x
|-0-------------------|-------------------|-0---2--3--3---2-----|
|-----3--1--1---0-----|-0---------3-------|------------------4--|
|------------------0--|-----2-------------|---------------------|
|---------------------|--------4----------|---------------------|
|-3r------------------|-2r--------5r------|-3r--------2r--------|
|-----------3r--------|-------------------|---------------------|
                                                      8va------|
         x         x           x                      harm-----|
|-0---2--3--7---5-----|-0---2--3--3---2-----|-----------12-----|
|------------------7--|------------------4--|-5--------12------|
|---------------------|---------------------|---------12-------|
|---------------------|---------------------|------------------|
|-3r--------5r--------|-3r--------2r--------|------------------|
|---------------------|---------------------|-0r---------------|


         
            
Tabs too difficult? Try these video lessons and learn fast.




comments powered by Disqus
↑ Back to top | Tablatures and chords are parodies/interpretations of the original songs. You may use it for private study, scholarship, research or language learning purposes only