>
 >
Acoustic Medley 1

Acoustic Medley 1 Guitar Tabs

In Flames - Acoustic Medley 1 chords, tabs, tablatures, lyrics

Guitar lessons | Add/correct | Request | Top 50 tabs Artists:  A B C D E F G H I J K L M N O P Q R S T U V W X Y Z 0-9

Acoustic Medley 1 Guitar Tabs – In Flames

CD, Sheet music, Poster

Do you like Acoustic Medley 1? Share with your friends now
TabsTabs v2Tabs v3
Acoustic Medley by In Flames                  Enjoy!


Guitar 1
Eb :-----------------|-----------------|5--~-----------------|
Bb :-----------------|-----------------|--------8----~--6--~-|
Gb :5-----5-----7-/9-|5-----5-----7-/9-|---------------------|
Db :--7-7---7-7------|--7-7---7-7------|---------------------|
Ab :-----------------|-----------------|---------------------|
Eb :-----------------|-----------------|---------------------|
 
Guitar 2
Eb :-----------------|-----------------|---------------------|
Bb :-----------------|-----------------|6----~--5--~---------|
Gb :5-----5-----7-/9-|5-----5-----7-/9-|----------------7--~-|
Db :--7-7---7-7------|--7-7---7-7------|---------------------|
Ab :-----------------|-----------------|---------------------|
Eb :-----------------|-----------------|---------------------|
 
Guitar 3
Eb :-----------------|-----------------|---------------------|
Bb :-----------------|-----------------|---------------------|
Gb :-----------------|-----------------|---------------------|
Db :-----------------|-----------------|---------------------|
Ab :0-0-0-0-0-0-3--3-|0-0-0-0-0-0-3--3-|----------------2-2--|
Eb :-----------------|-----------------|1-1---1-1-1---1------|
 
=============================================================
Guitar 1
Eb :---------------------|-----------------|-----------------|
Bb :8--~-6--~-5--~-------|-----------------|-----------------|
Gb :---------------7---~-|5-----5-----7-/9-|5-----5-----7-/9-|
Db :---------------------|--7-7---7-7------|--7-7---7-7------|
Ab :---------------------|-----------------|-----------------|
Eb :---------------------|-----------------|-----------------|
 
Guitar 2
Eb :---------------------|-----------------|-----------------|
Bb :5--~-----------------|-----------------|-----------------|
Gb :-----7--~-5--~-4-~---|5-----5-----7-/9-|5-----5-----7-/9-|
Db :---------------------|--7-7---7-7------|--7-7---7-7------|
Ab :---------------------|-----------------|-----------------|
Eb :---------------------|-----------------|-----------------|
 
Guitar 3
Eb :---------------------|-----------------|-----------------|
Bb :---------------------|-----------------|-----------------|
Gb :---------------------|-----------------|-----------------|
Db :---------------------|-----------------|-----------------|
Ab :3-3--2-2--0-0--2--2--|0-0-0-0-0-0-3--3-|0-0-0-0-0-0-3--3-|
Eb :---------------------|-----------------|-----------------|
 
==============================================================
Guitar 1
Eb :5----~----------------|-----------------------|-------------------|
Bb :--------8----~--6----~|8---~-6---~-5---~------|5--~--------------5|
Gb :----------------------|------------------7-~--|-------7---~----7--|
Db :----------------------|-----------------------|-------------------|
Ab :----------------------|-----------------------|-------------------|
Eb :----------------------|-----------------------|-------------------|
 
Guitar 2
Eb :----------------------|-----------------------|-------------------|
Bb :6--~----5--~----------|5-~--------------------|-------------------|
Gb :----------------7--~--|------7-~---5-~---4-~--|5--~---4---~----4-5|
Db :----------------------|-----------------------|-------------------|
Ab :----------------------|-----------------------|-------------------|
Eb :----------------------|-----------------------|-------------------|
 
Guitar 3
Eb :----------------------|-----------------------|-------------------|
Bb :----------------------|-----------------------|-------------------|
Gb :----------------------|-----------------------|-------------------|
Db :----------------------|-----------------------|-------------------|
Ab :----------------2-2---|3--3--2--2--0--0--2--2-|0-0--0-------------|
Eb :1-1---1-1-1---1-------|-----------------------|-------3-3--3-3-3--|
 
==========================================================================
Guitar 1
Eb :-----------------|--------------------|----------------|
Bb :6-5--------------|5---6-/8---6-5-6-5--|----5-8---------|
Gb :----7-5--~-5-5-7-|--5----------------7|5---------------|
Db :-----------------|--------------------|--7-------------|
Ab :-----------------|--------------------|----------------|
Eb :-----------------|--------------------|----------------|
 
Guitar 2
Eb :-----------------|--------------------|----------------|
Bb :-----------------|5---6-/8---6-5-6-5--|----5-----------|
Gb :7-5-4----------7-|--5----------------7|5-----7---------|
Db :------7--~---7---|--------------------|--7-------------|
Ab :-----------------|--------------------|----------------|
Eb :-----------------|--------------------|----------------|
 
Guitar 3
Eb :-----------------|--------------------|----------------|
Bb :-----------------|--------------------|----------------|
Gb :-----------------|--------------------|----------------|
Db :-----------------|--------------------|----------------|
Ab :------0-0--0-0-0-|0-0-0--5-5-5-5---5--|----------------|
Eb :1-1-1------------|--------------------|1-1-1-3-3-3-3-3-|
 
==========================================================================
Guitar 1
Eb :--------------------|-----------------|--------------------|
Bb :5---~--------------5|6-5--------------|5---6-/8---6-5-6-5--|
Gb :--------7--~-----7--|----7-5-~--5-5-7-|--5----------------7|
Db :--------------------|-----------------|--------------------|
Ab :--------------------|-----------------|--------------------|
Eb :--------------------|-----------------|--------------------|
 
Guitar 2
Eb :--------------------|-----------------|--------------------|
Bb :--------------------|-----------------|5---6-/8---6-5-6-5--|
Gb :5-~-----4--~-----4-5|7-5-4----------7-|--5----------------7|
Db :--------------------|------7-~--7-7---|--------------------|
Ab :--------------------|-----------------|--------------------|
Eb :--------------------|-----------------|--------------------|
 
Guitar 3
Eb :--------------------|-----------------|--------------------|
Bb :--------------------|-----------------|--------------------|
Gb :--------------------|-----------------|--------------------|
Db :--------------------|-----------------|--------------------|
Ab :0--0--0-------------|------0--0-0-0-0-|0-0-0--5-5-5-5---5--|
Eb :--------3-3--3-3-3--|1-1-1------------|--------------------|
 
==========================================================================
Guitar 1
Eb :----------------|-----------------|-----------------|
Bb :----5-----------|-----------------|-----------------|
Gb :5-----7---------|5-----5-----7-/9-|5-----5-----7-/9-|
Db :--7-------------|--7-7---7-7------|--7-7---7-7------|
Ab :----------------|-----------------|-----------------|
Eb :----------------|-----------------|-----------------|
Guitar 2
Eb :----------------|-----------------|-----------------|
Bb :----5-----------|-----------------|-----------------|
Gb :5-----7---------|5-----5-----7-/9-|5-----5-----7-/9-|
Db :--7-------------|--7-7---7-7------|--7-7---7-7------|
Ab :----------------|-----------------|-----------------|
Eb :----------------|-----------------|-----------------|
Guitar 3
Eb :----------------|-----------------|-----------------|
Bb :----------------|-----------------|-----------------|
Gb :----------------|-----------------|-----------------|
Db :----------------|-----------------|-----------------|
Ab :----------------|0-0-0-0-0-0-3--3-|0-0-0-0-0-0-3--3-|
Eb :1-1-1-3-3-3-3-3-|-----------------|-----------------|
 
==========================================================================
Guitar 1
Eb :5--~-----------------|---------------------|-----------------|
Bb :--------8----~--6--~-|8--~-6--~-5--~-------|-----------------|
Gb :---------------------|---------------7---~-|5-----5-----7-/9-|
Db :---------------------|---------------------|--7-7---7-7------|
Ab :---------------------|---------------------|-----------------|
Eb :---------------------|---------------------|-----------------|
 
Guitar 2
Eb :---------------------|---------------------|-----------------|
Bb :6----~--5--~---------|5--~-----------------|-----------------|
Gb :----------------7--~-|-----7--~-5--~-4-~---|5-----5-----7-/9-|
Db :---------------------|---------------------|--7-7---7-7------|
Ab :---------------------|---------------------|-----------------|
Eb :---------------------|---------------------|-----------------|
 
Guitar 3
Eb :---------------------|---------------------|-----------------|
Bb :---------------------|---------------------|-----------------|
Gb :---------------------|---------------------|-----------------|
Db :---------------------|---------------------|-----------------|
Ab :----------------2-2--|3-3--2-2--0-0--2--2--|0-0-0-0-0-0-3--3-|
Eb :1-1---1-1-1---1------|---------------------|-----------------|
 
==========================================================================
Guitar 1
Eb :-----------------|5--~-----------------|---------------------|
Bb :-----------------|--------8----~--6--~-|8--~-6--~-5--~-------|
Gb :5-----5-----7-/9-|---------------------|---------------7---~-|
Db :--7-7---7-7------|---------------------|---------------------|
Ab :-----------------|---------------------|---------------------|
Eb :-----------------|---------------------|---------------------|
 
Guitar 2
Eb :-----------------|---------------------|---------------------|
Bb :-----------------|6----~--5--~---------|5--~-----------------|
Gb :5-----5-----7-/9-|----------------7--~-|-----7--~-5--~-4-~---|
Db :--7-7---7-7------|---------------------|---------------------|
Ab :-----------------|---------------------|---------------------|
Eb :-----------------|---------------------|---------------------|
 
Guitar 3
Eb :-----------------|---------------------|---------------------|
Bb :-----------------|---------------------|---------------------|
Gb :-----------------|---------------------|---------------------|
Db :-----------------|---------------------|---------------------|
Ab :0-0-0-0-0-0-3--3-|----------------2-2--|3-3--2-2--0-0--2--2--|
Eb :-----------------|1-1---1-1-1---1------|---------------------|
 
==========================================================================
Guitar 1
Eb :|*----------------|----------------|----------------|
Bb :|*1---5---3---0---|----1---0---3---|1---5---3---0---|
Gb :| 2---5---4---0---|2---2---0---4---|2---5---4---0---|
Db :| ----------------|3---------------|----------------|
Ab :| --0---0---0---0-|--0---0---0---0-|--0---0---0---0-|
Eb :| ----------------|----------------|----------------|
 
Guitar 2
Eb :|*----------------|----------------|----------------|
Bb :|*----------------|----------------|----------------|
Gb :| ----------------|----------------|----------------|
Db :| ----------------|----------------|----------------|
Ab :| 0---0---0---0---|0---0---0---0---|0---0---0---0---|
Eb :| --5---5---5---5-|--5---5---5---5-|--5---5---5---5-|
 
Guitar 3
Eb :|*----------------|----------------|----------------|
Bb :|*----------------|----------------|----------------|
Gb :| ----------------|----------------|----------------|
Db :| ----------------|----------------|----------------|
Ab :| 0---0---0---0---|0---0---0---0---|0---0---0---0---|
Eb :| --5---5---5---5-|--5---5---5---5-|--5---5---5---5-|
 
==========================================================================
Guitar 1
Eb :----------------*1|-------------------|----------------|
Bb :----1---0-------*||-------------------|----------------|
Gb :2---2---0---2--- ||-------------------|--------4---2---|
Db :3-----------3--- ||--2---4-4-h5---5---|--2---5---------|
Ab :--0---0---0---0- ||-------------------|----------------|
Eb :---------------- ||0---0--------------|0---0-----------|
 
Guitar 2
Eb :----------------*1|-------------------|----------------|
Bb :----------------*||-------------------|----------------|
Gb :---------------- ||-------------------|----------------|
Db :---------------- ||--2----------------|--2---2-5-4-4---|
Ab :0---0---0---0--- ||------5-5-h7---7---|----------------|
Eb :--5---5---5---5- ||0---0--------------|0---0-----------|
 
Guitar 3
Eb :----------------*1|-------------------|----------------|
Bb :----------------*||-------------------|----------------|
Gb :---------------- ||---------------0---|------------0---|
Db :---------------- ||----2--------2---2-|----2-----4---4-|
Ab :0---0---0---0--- ||--2---2-3----------|--2---2-5-------|
Eb :--5---5---5---5- ||0------------------|0---------------|
 
==========================================================================
Guitar 1
Eb :-------------------|-------------------|-------------------|
Bb :-------------------|-------------------|-------------------|
Gb :-------------------|-------------------|-------------------|
Db :--2---0-0-h2---2---|2---2-4-5-4----2-4-|--2---4----5---5---|
Ab :-------------------|-------------------|-------------------|
Eb :0---0--------------|-------------------|0---0--------------|
 
Guitar 2
Eb :-------------------|-------------------|-------------------|
Bb :-------------------|-------------------|-------------------|
Gb :-------------------|------2-4-4-p2---2-|-------------------|
Db :--2---4-4-h5---5---|5---5----------5---|--2----------------|
Ab :-------------------|-------------------|------5-5-h7---7---|
Eb :0---0--------------|-------------------|0---0--------------|
 
Guitar 3
Eb :-------------------|-------------------|-------------------|
Bb :-------------------|-------------------|-------------------|
Gb :---------------0---|----0----------0---|---------------0---|
Db :----2--------2---2-|--2---2---4------4-|----2--------2---2-|
Ab :--2---2-3----------|3-------5----------|--2---2-3----------|
Eb :0------------------|-------------------|0------------------|
 
==========================================================================
Guitar 1
Eb :----------------|-------------------|-------------------|
Bb :----------------|-------------------|-------------------|
Gb :--------4---2---|-------------------|-------------------|
Db :--2---5---------|--2---0-0-h2---2---|2---2-4-5-4----2-4-|
Ab :----------------|-------------------|-------------------|
Eb :0---0-----------|0---0--------------|-------------------|
 
Guitar 2
Eb :----------------|-------------------|-------------------|
Bb :----------------|-------------------|-------------------|
Gb :----------------|-------------------|------2-4-4-p2---2-|
Db :--2---2-5-4-4---|--2---4-4-h5---5---|5---5----------5---|
Ab :----------------|-------------------|-------------------|
Eb :0---0-----------|0---0--------------|-------------------|
 
Guitar 3
Eb :----------------|-------------------|-------------------|
Bb :----------------|-------------------|-------------------|
Gb :------------0---|---------------0---|----0----------0---|
Db :----2-----4---4-|----2--------2---2-|--2---2---4------4-|
Ab :--2---2-5-------|--2---2-3----------|3-------5----------|
Eb :0---------------|0------------------|-------------------|
 
==========================================================================
Guitar 1
Eb :----------------|----------------|----------------|
Bb :1---5---3---0---|----1---0---3---|1---5---3---0---|
Gb :2---5---4---0---|2---2---0---4---|2---5---4---0---|
Db :----------------|3---------------|----------------|
Ab :--0---0---0---0-|--0---0---0---0-|--0---0---0---0-|
Eb :----------------|----------------|----------------|
 
Guitar 2
Eb :----------------|----------------|----------------|
Bb :----------------|----------------|----------------|
Gb :----------------|----------------|----------------|
Db :----------------|----------------|----------------|
Ab :0---0---0---0---|0---0---0---0---|0---0---0---0---|
Eb :--5---5---5---5-|--5---5---5---5-|--5---5---5---5-|
 
Guitar 3
Eb :----------------|----------------|----------------|
Bb :----------------|----------------|----------------|
Gb :----------------|----------------|----------------|
Db :----------------|----------------|----------------|
Ab :0---0---0---0---|0---0---0---0---|0---0---0---0---|
Eb :--5---5---5---5-|--5---5---5---5-|--5---5---5---5-|
 
==========================================================================
Guitar 1
Eb :----------------|----------------|----------------|
Bb :----1---0-------|1---5---3---0---|----1---0---3---|
Gb :2---2---0---2---|2---5---4---0---|2---2---0---4---|
Db :3-----------3---|----------------|3---------------|
Ab :--0---0---0---0-|--0---0---0---0-|--0---0---0---0-|
Eb :----------------|----------------|----------------|
 
Guitar 2
Eb :----------------|----------------|----------------|
Bb :----------------|----------------|----------------|
Gb :----------------|----------------|----------------|
Db :----------------|----------------|----------------|
Ab :0---0---0---0---|0---0---0---0---|0---0---0---0---|
Eb :--5---5---5---5-|--5---5---5---5-|--5---5---5---5-|
 
Guitar 3
Eb :----------------|----------------|----------------|
Bb :----------------|----------------|----------------|
Gb :----------------|----------------|----------------|
Db :----------------|----------------|----------------|
Ab :0---0---0---0---|0---0---0---0---|0---0---0---0---|
Eb :--5---5---5---5-|--5---5---5---5-|--5---5---5---5-|
 
==========================================================================
Guitar 1
Eb :----------------|----------------|----------------|
Bb :1---5---3---0---|----1---0-------|------7---5---8-|
Gb :2---5---4---0---|2---2---0---2---|----------------|
Db :----------------|3-----------3---|----9-----------|
Ab :--0---0---0---0-|--0---0---0---0-|--7-------------|
Eb :----------------|----------------|0---------------|
 
Guitar 2
Eb :----------------|----------------|--------------7-|
Bb :----------------|----------------|------7---5-----|
Gb :----------------|----------------|----------------|
Db :----------------|----------------|----9-----------|
Ab :0---0---0---0---|0---0---0---0---|--7-------------|
Eb :--5---5---5---5-|--5---5---5---5-|0---------------|
 
Guitar 3
Eb :----------------|----------------|----------------|
Bb :----------------|----------------|----------------|
Gb :----------------|----------------|----------------|
Db :----------------|----------------|----------------|
Ab :0---0---0---0---|0---0---0---0---|--------3-3-3-3-|
Eb :--5---5---5---5-|--5---5---5---5-|0-0-0-0---------|
 
==========================================================================
Guitar 1
Eb :------------------|-----------------|---------------------|
Bb :--7---5-----------|-----------------|---------------------|
Gb :----------7-4-5-4-|---------------7-|--7-9----7-----------|
Db :------------------|7-\5-5-----------|------10---9-10-7----|
Ab :------------------|-----------------|------------------10-|
Eb :------------------|-----------------|---------------------|
 
Guitar 2
Eb :--5---------------|-----------------|---------------------|
Bb :------8---7-5-----|-----------------|---------------------|
Gb :------------------|5-\4-4---------4-|--4-5----4-----------|
Db :------------------|-----------------|-------7---5--7-4----|
Ab :------------------|-----------------|-------------------5-|
Eb :------------------|-----------------|---------------------|
 
Guitar 3
Eb :------------------|-----------------|---------------------|
Bb :------------------|-----------------|---------------------|
Gb :------------------|-----------------|---------------------|
Db :------------------|-----------------|---------------------|
Ab :0-0-0-0-0-0-5---5-|---------3-3-3-3-|5---5--5-5-5--5-5--5-|
Eb :------------------|0--0-0-0---------|---------------------|
 
==========================================================================
Guitar 1
Eb :------------------|-------7---5----7-|5-\3-3-----------|
Bb :------7-8-5---8---|--7---------------|-----------------|
Gb :------------------|------------------|---------------7-|
Db :----9-------------|------------------|-----------------|
Ab :--7---------------|------------------|-----------------|
Eb :0-----------------|------------------|-----------------|
 
Guitar 2
Eb :--------------5-h7|--5---10---8---10-|8-\7-7-----------|
Bb :------7---5-------|------------------|-----------------|
Gb :------------------|------------------|---------------4-|
Db :----9-------------|------------------|-----------------|
Ab :--7---------------|------------------|-----------------|
Eb :0-----------------|------------------|-----------------|
 
Guitar 3
Eb :------------------|------------------|-----------------|
Bb :------------------|------------------|-----------------|
Gb :------------------|------------------|-----------------|
Db :------------------|------------------|-----------------|
Ab :--------3-3-3-3---|0-0-0--0-0-0-5--5-|---------3-3-3-3-|
Eb :0-0-0-0-----------|------------------|0--0-0-0---------|
 
==========================================================================
Guitar 1
Eb :---------------------|----------------|------------------|
Bb :---------------------|8-----7---------|------------------|
Gb :--7-9----7-----------|------------7---|------------------|
Db :------10---9-10-7----|----------------|7-h9-10-----------|
Ab :------------------10-|----------------|------------------|
Eb :---------------------|----------------|------------------|
 
Guitar 2
Eb :---------------------|----------------|------------------|
Bb :---------------------|8-----7---------|------5-----------|
Gb :--4-5----4-----------|------------7---|5--7--------------|
Db :-------7---5--7-4----|----------------|------------------|
Ab :-------------------5-|----------------|------------------|
Eb :---------------------|----------------|------------------|
 
Guitar 3
Eb :---------------------|----------------|------------------|
Bb :---------------------|----------------|------------------|
Gb :---------------------|----------------|------------------|
Db :---------------------|----------------|------------------|
Ab :5---5--5-5-5--5-5--5-|----------------|------------------|
Eb :---------------------|----------------|------------------|
 
==========================================================================
Guitar 1
Eb :----------------|-------------------|----------------|
Bb :8-7-------------|-------------------|----------------|
Gb :----7-----------|-------------------|--------4---2---|
Db :------7---5-----|--2---4-4-h5---5---|--2---5---------|
Ab :--------------9-|-------------------|----------------|
Eb :----------------|0---0--------------|0---0-----------|
 
Guitar 2
Eb :----------------|-------------------|----------------|
Bb :8-7-------------|-------------------|----------------|
Gb :----7-----------|-------------------|----------------|
Db :------7---5-----|--2----------------|--2---2-5-4-4---|
Ab :--------------9-|------5-5-h7---7---|----------------|
Eb :----------------|0---0--------------|0---0-----------|
 
Guitar 3
Eb :----------------|-------------------|----------------|
Bb :----------------|-------------------|----------------|
Gb :----------------|---------------0---|------------0---|
Db :----------------|----2--------2---2-|----2-----4---4-|
Ab :----------------|--2---2-3----------|--2---2-5-------|
Eb :----------------|0------------------|0---------------|
 
==========================================================================
Guitar 1
Eb :-------------------|-------------------|-------------------|
Bb :-------------------|-------------------|-------------------|
Gb :-------------------|-------------------|-------------------|
Db :--2---0-0-h2---2---|2---2-4-5-4----2-4-|--2---4----5---5---|
Ab :-------------------|-------------------|-------------------|
Eb :0---0--------------|-------------------|0---0--------------|
 
Guitar 2
Eb :-------------------|-------------------|-------------------|
Bb :-------------------|-------------------|-------------------|
Gb :-------------------|------2-4-4-p2---2-|-------------------|
Db :--2---4-4-h5---5---|5---5----------5---|--2----------------|
Ab :-------------------|-------------------|------5-5-h7---7---|
Eb :0---0--------------|-------------------|0---0--------------|
 
Guitar 3
Eb :-------------------|-------------------|-------------------|
Bb :-------------------|-------------------|-------------------|
Gb :---------------0---|----0----------0---|---------------0---|
Db :----2--------2---2-|--2---2---4------4-|----2--------2---2-|
Ab :--2---2-3----------|3-------5----------|--2---2-3----------|
Eb :0------------------|-------------------|0------------------|
 
==========================================================================
Guitar 1
Eb :----------------|-------------------|-------------------|
Bb :----------------|-------------------|-------------------|
Gb :--------4---2---|-------------------|-------------------|
Db :--2---5---------|--2---0-0-h2---2---|2---2-4-5-4----2-4-|
Ab :----------------|-------------------|-------------------|
Eb :0---0-----------|0---0--------------|-------------------|
 
Guitar 2
Eb :----------------|-------------------|-------------------|
Bb :----------------|-------------------|-------------------|
Gb :----------------|-------------------|------2-4-4-p2---2-|
Db :--2---2-5-4-4---|--2---4-4-h5---5---|5---5----------5---|
Ab :----------------|-------------------|-------------------|
Eb :0---0-----------|0---0--------------|-------------------|
 
Guitar 3
Eb :----------------|-------------------|-------------------|
Bb :----------------|-------------------|-------------------|
Gb :------------0---|---------------0---|----0----------0---|
Db :----2-----4---4-|----2--------2---2-|--2---2---4------4-|
Ab :--2---2-5-------|--2---2-3----------|3-------5----------|
Eb :0---------------|0------------------|-------------------|
 
==========================================================================
Guitar 1
Eb :--------0-------|0---------------|
Bb :------0---0-----|0---------------|
Gb :------------0---|0---------------|
Db :----2---------2-|2---------------|
Ab :--2-------------|2---------------|
Eb :0---------------|0---------------|
 
Guitar 2
Eb :----------------|0---------------|
Bb :--------0-------|0---------------|
Gb :------0---0-----|0---------------|
Db :----2-------2---|2---------------|
Ab :--2-----------2-|2---------------|
Eb :0---------------|0---------------|
 
Guitar 3
Eb :----------------|0---------------|
Bb :--------0-------|0---------------|
Gb :------0---0-----|0---------------|
Db :----2-------2---|2---------------|
Ab :--2-----------2-|2---------------|
Eb :0---------------|0---------------|





Comments


Popular In Flames tabs & chords
Clayman 1 Bass Tabs
Free Fall Bass Tabs
Satellites And Astonauts Bass Tabs
Come Clarity Chords
Artifacts Of The Black Rain 1 Tabs
Eye Of The Beholder Tabs
Hive Tabs
Sleepless Again Tabs
The Jesters Dance 1 Tabs
Trigger 1 Tabs


Song lyrics



↑ Back to top | Tablatures and chords are parodies/interpretations of the original songs. You may use it for private study, scholarship, research or language learning purposes only
© 2014 AZChords.com Contact us | Privacy policy | DMCA | Add/correct tabs | Request tabs | Top 50 tabs