» » »

Violent And Funky Tabs (ver.2)

Artists:  A B C D E F G H I J K L M N O P Q R S T U V W X Y Z # 

Violent And Funky Tabs (ver.2)

Infectious Grooves
Rating:
0/5 (0 votes)

Hard to play? Try these video lessons and learn fast.
                -----------------------------------------------------------------
-----------------------------------------------------------------


Tuning: Standard : EADGBe

If you're familiar with the song, you should be able to figure out when the parts are 
to be played etc.


Key:

| x  Muted note
| /  slide up
| \  slide down
| h  hammer-on
| p  pull-off
| x  Mute note

Guitar 1 : Clean Guitar

Intro

e|-------------------------------------------------------------|
B|---------------------x-x-12-12-12-12-12-10-------------------|
G|-10h12p10------------x-x-10-10-10-10-10-10-------------------| x2
D|-10-------12-10-x-12-x-x-10-10-10-10-10-----10-x-12----------|
A|----------------------------------------------------x-x-12\9-|
E|-------------------------------------------------------------|

Verse, Chorus, Middle 8 etc...

   1  e  + a 2  e  +  a  3  e  +  a  4  e  +  a
e|-10-10-x-x-10-10-x--x--x--10-x--x--x--10-x--10-----|
B|-13-13-x-x-13-13-x--x--x--13-x--x--x--13-x--13-----|
G|-10-10-x-x-10-10-x--x--x--10-x--x--x--10-x--10-----|
D|-10-10-x-x-10-10-x--x--x--10-x--x--x--10-x--10-----|
A|---------------------------------------------------|
E|---------------------------------------------------|

   1  e  + a 2  e  +  a  3  e  +  a  4  e  +  a
e|-10-10-x-x-10-10-x--x--x--10-x--x--x--10-x--10-----|
B|-12-12-x-x-12-12-x--x--x--12-x--x--x--12-x--12-----|
G|-10-10-x-x-10-10-x--x--x--10-x--x--x--10-x--10-----|
D|-10-10-x-x-10-10-x--x--x--10-x--x--x--10-x--10-----|
A|---------------------------------------------------|
E|---------------------------------------------------|

Guitar 2 : Distorted Guitar

The distorted guitar only plays one riff throughout the song.

   1   +   2   +   3    +    4    +     1   +   2   +   3    +    4    +
e|------------------------------------|------------------------------------|
B|------------------------------------|------------------------------------|
G|---------2h3p3---2h3p3--------------|---------2h3p3---2h3p3--------------|
D|---------------5-------5-2h3p2------|---------------5-------5-2h3p2------|
A|-5-5-5-5-----------------------5~~~-|-5-5-5-5-----------------------5~~~-|
E|------------------------------------|------------------------------------|

However there is occasionally an over-dubbed guitar plays the same riff up one octave

 Like This:

e|---------------------------------------------|
B|---------------------------------------------|
G|---------14h15p14----14h15p14----------------|
D|------------------17----------17-15h17p15----|
A|------------------------------------------17-|
E|---------------------------------------------|

I think that's about it...

Any corrections or general comments etc welcome :)

Cheers :) rate it and stuff .
            
Hard to play? Try these video lessons and learn fast. | Correct




comments powered by Disqus
↑ Back to top | Tablatures and chords are parodies/interpretations of the original songs. You may use it for private study, scholarship, research or language learning purposes only