» » »

These Freaks Are Here To Party ++ Bass tabs (ver.1)

Artists:  A B C D E F G H I J K L M N O P Q R S T U V W X Y Z # 

These Freaks Are Here To Party ++ Bass tabs (ver.1)

Infectious Grooves
Rating:
0/5 (0 votes)

Hard to play? Try these video lessons and learn fast.
                He got what I've called the 'verse' riff spot on but didn't include
the bass solo or bridge. The bass solo is sort of right, but I'm sure
there's a couple of notes missing. My advice is add loads of mutes to
cover up for that (!). As for the rhythms, listen to the track to suss
it out - it's not too hard.

Intro:
|----------------------|
|----------------------|
|----------------------|
|-0-/-12-\-10-/-19-\-0-|

Verse riff:
|---------------------------|---------------------------------------|
|---------------------------|---------------------------------------|
|-----/-7-\-----------------|-----------------------------/-5-5-5-5-|
|-0-----------0-0-3-/5\-3\--|-0-0-0-0-/-4-4-4-4-/-7-7-7-7-----------|

Bass solo:
    T P  T P  T P  T P  T P  T P  T P  T P  T P  T  P
|-----7---------6--------------5----4----5---------4^6--|
|----------7---------6----5-------------------5---------|
|-/-5---------4--------------3----X----X---------X------|
|--------5---------4----3-------------------X-----------|

  T P  T P  T P    P P P P P P P P
|---7----5-------/-7-7-7-7-7-7-7-7-|
|-------------5-/------------------|
|-5----3---------------------------|
|-----------3----------------------|

Bridge:
|------------------|------------------|
|------------------|------------------|
|-5-4-3-2--2-1-0---|------------------|
|----------------3-|-3-2-1-0--0-0-0-0-|

Enjoy!
            
Hard to play? Try these video lessons and learn fast. | Correct




comments powered by Disqus
↑ Back to top | Tablatures and chords are parodies/interpretations of the original songs. You may use it for private study, scholarship, research or language learning purposes only