» » »

Infectious Grooves, Punk It Up Bass tabs (ver.2)

Artists:  A B C D E F G H I J K L M N O P Q R S T U V W X Y Z # 

Punk It Up Bass tabs (ver.2)

Infectious Grooves Tabs
Rating:
5/5 (2 votes)
Punk It Up lessons Tabs too difficult? Try these video lessons and learn fast
                Band: Infectious Grooves
Bassist: Robert Trujillo
Tuning: Standard

Intro
   P
G|------------------------------------------------------------------------|
D|-5h7p5h7p5h7p5h7p5h7p5h7p5h7p5h7p5h7p5h7p5h7p5h7p5h7p5h7p5h7p5h7p5h7p5h7|
A|------------------------------------------------------------------------|
E|------------------------------------------------------------------------|

------------------------------------------------------------------------|
p5h7p5h7p5h7p5h7p5h7p5h7p5h7p5h7p5h7p5h7p5h7p5h7p5h7p5h7p5h7p5h7p5h7p5h7|
------------------------------------------------------------------------|
------------------------------------------------------------------------|

        s
------------|
p5h7p5------|
--------10\-|
------------|

   s s P P P         s s s ss P s P s s s s
G|-----9-6-6h7p6h7p6--------------7-----------|
D|----------------------------5---------------| x8
A|-x-7---------------x-x-4-44---x---5-x-x-5/7-|
E|--------------------------------------------|

G|---|
D|---|
A|---|
E|-0-|

   s P P s P P
G|-------------|
D|---2-2---5-5-| x4
A|-------------|
E|-0-----0-----|

Verse 1
   s P s P s P s P s P s P s P s P sPsPsPsPsPsPsPsP
G|--------------------------------------------------|
D|---2---2---2---2---2---2---2---2--2-2-2-2-2-2-2-2-|
A|--------------------------------------------------|
E|-0---0---0---0---0---0---0---0---0-0-0-0-0-0-0-0--|

Chorus
   s s s s P P   s s s s P P
G|-------------|-------------|
D|---------5-5-|---------5-5-| x2
A|-1-1-3-------|-3-1-3-------|
E|-------3-----|-------3-----|

   s P P s P P
G|-------------|
D|---2-2---5-5-| x4
A|-------------|
E|-0-----0-----|

Verse 2
   s P s P s P s P s P s P s P s P sPsPsPsPsPsPsPsP
G|--------------------------------------------------|
D|---2---2---2---2---2---2---2---2--2-2-2-2-2-2-2-2-|
A|--------------------------------------------------|
E|-0---0---0---0---0---0---0---0---0-0-0-0-0-0-0-0--|

Chorus
   s s s s P P   s s s s P P
G|-------------|-------------|
D|---------5-5-|---------5-5-| x2
A|-1-1-3-------|-3-1-3-------|
E|-------3-----|-------3-----|

   s P P s P P
G|-------------|
D|---2-2---5-5-| x4
A|-------------|
E|-0-----0-----|

Verse 3
   s P s P s P s P s P s P s P s P sPsPsPsPsPsPsPsP
G|--------------------------------------------------|
D|---2---2---2---2---2---2---2---2--2-2-2-2-2-2-2-2-|
A|--------------------------------------------------|
E|-0---0---0---0---0---0---0---0---0-0-0-0-0-0-0-0--|

Chorus
   s s s s P P   s s s s P P
G|-------------|-------------|
D|---------5-5-|---------5-5-| x2
A|-1-1-3-------|-3-1-3-------|
E|-------3-----|-------3-----|

   P P s s s s
G|-------------|
D|-5-5---------| x2
A|-------------|
E|-----5-8-5-8-|

   s s s P P
G|-----------|
D|-------5-5-| x4
A|-----------|
E|-6-5-3-----|

G|---|
D|---|
A|---|
E|-0-|

   s s s P P
G|-----------|
D|-------5-5-| x4
A|-----------|
E|-6-5-3-----|

G|---|
D|---|
A|---|
E|-0-|

   s s s P P
G|-----------|
D|-------5-5-| x4
A|-----------|
E|-6-5-3-----|

   s P P s P P s P P s s
G|------------------------|
D|---5-5---5-5---5-5------|
A|------------------------|
E|-5-----5-----8-----7-10-|

   s P P s P P
G|-------------|
D|---2-2---5-5-| x8
A|-------------|
E|-0-----0-----|

   s P P s P P
G|-------------|
D|---2-2---5-5-| x4
A|-------------|
E|-0-----3-----|

Guitar solo
   s P P s P P
G|-------------|
D|---2-2---5-5-| x23
A|-------------|
E|-0-----3-----|

   s P P s
G|---------|
D|---2-2---|
A|---------|
E|-0-----0-|

Outro
   sP P P         s s s ss P s P s s s s
G|--9-6-6h7p6h7p6--------------7-----------|
D|-------------------------5---------------|
A|-7--------------x-x-4-44---x---5-x-x-5/7-|
E|-----------------------------------------|

   s s P P P         s s s ss P s P s s s s
G|-----9-6-6h7p6h7p6--------------7-----------|
D|----------------------------5---------------| x3
A|-x-7---------------x-x-4-44---x---5-x-x-5/7-|
E|--------------------------------------------|

   s s P P P         s s s ss P s P s s s
G|-----9-6-6h7p6h7p6--------------7--------|
D|----------------------------5------------|
A|-x-7---------------x-x-4-44---x---5-x-x--|
E|-----------------------------------------|

G|-11-13-14-13-11-------11---------------12-13\-|
D|----------------14-12----14-12-11-9----11-12\-|
A|------------------------------------12--------|
E|----------------------------------------------|

Legend
------
| / = slide up
| \ = slide down
| h = hammer-on
| p = pull-off
| s = slap
| P = pop
| x = mute note
            

comments powered by Disqus
↑ Back to top | Infectious Grooves Bass for Punk It Up. Lyrics for acoustic guitar and electric guitar. Tablatures and chords are parodies/interpretations of the original songs. You may use it for private study, scholarship, research or language learning purposes only