>
 >
Streched

Streched Guitar Tabs

Infected Mushroom - Streched chords, tabs, tablatures, lyrics

Guitar lessons | Add/correct | Request | Top 50 tabs Artists:  A B C D E F G H I J K L M N O P Q R S T U V W X Y Z 0-9

Streched Guitar Tabs – Infected Mushroom

CD, Sheet music, Poster

Do you like Streched? Share with your friends now
Tabs
infected mushhhhroooooooommmmm - Streched

Most of the parts aren't really guitar but I converted them so you can play along
the whole song. You'll have to listen to the song for the rhythm. Hope someone finds it
Oh, I tried to  write the timings for every part but it's probably not exact so i trust 
to understand what is what...near the end i stopped writing the time since it all became
and I became lazy. Yeah, and...that's my first tab, but I'm pretty sure it's correct.

s = slide
h = hammer on
p = pull off
b = bend
r = release
[] = harmonic
() = well... it means as if the note is almost silent or... that it's not actually played
x = dead note (how sad...)
little comments = me being gay
people = shit

0:00-0:07
----------

e--------------|-----------------|----------------|--------------|
B--------------|-----------------|----------------|--------------|
G--8-7--5-7----|-8s7-7-5-5-7-----|-9s7-7-5-5-7----|-8s7-5-5-7----|
D-----------7--|--------------7--|--------------7-|-----------7--|
A------3-------|-------------x---|-------------x--|--------------|
E--------------|-----------------|----------------|--------------|

0:08-0:31
----------

e----------------|----------------|----------------|--------------|
B----------------|----------------|----------------|--------------|
G--8-7--5-7-7----|-8s7-5-5-7-7----|-9s7-5-5-7-7----|-8s7-5-5-7----| repeat
D-------------7--|-------------7--|-------------7--|-----------7--|   it
A------3---------|----------------|----------------|--------------|
E----------------|----------------|----------------|--------------|

0:32-0:56 (the "aha" voices converted into guitar)
-----------------------------------------------------

e-----------------|--------------------|--------------------|
B-----------------|--------------------|--------------------|
G--8-7-5-5-7-7----|-8s7-x-5-5-7--------|-8s7-x-5-5-7-7------|
D--------------7--|-------------x-5s7--|---------------7s5--|
A-----------------|--------------------|---------------0----|
E-----------------|--------------------|--------------------|

e--------------5--|
B-----------------|
G--8s7-x-5-5-7----|
D-----------------|
A-----------------|
E-----------------|

0:57-1:11
---------

e---------------------------------------------------|
B---------------------------------------------------|
G---------------------------------------------------|
D---------------------------------------------------|
A---------------------------------------------------|
E--10s5-5-5--3s10s5-5-5-5--10s5-5-5--3s10s5-555-5s3-|

1:11-1:28
----------

e--------------------------------------------------------------|
B--x-x-x--x-13-x-13-x-13-x-13-13-x-x-x--x-10-x-10-x-10-x-10-10-|
G--------------------------------------------------------------|
D--------------------------------------------------------------|
A--------------------------------------------------------------|
E--------------------------------------------------------------|

e--------------------------------------------------------------|
B--x-x-x--x-12-x-12-x-12-x-12-12-x-x-x--x-13-x-13-x-13-x-13-13-|
G--------------------------------------------------------------|
D--------------------------------------------------------------|
A--------------------------------------------------------------|
E--------------------------------------------------------------|

1:29-2:31 (First guitar solo) (the part above still keeps on playing until some point)
---------------------------------------------------------------

e-------------------------------------------------------------------|
B--------13-15b16.5r15--13-------13-12-----12-13-----15b16.5r15-13--|
G-----14-------------------14-12--------12-------14-----------------|
D--14---------------------------------------------------------------|
A-------------------------------------------------------------------|
E-------------------------------------------------------------------|

e------------------------------------------------------------15-----|
B--------13-15b16.5r15--13-------13-12-----12-13--15b16.5r15----13--|
G-----14-------------------14-12--------12--------------------------|
D--14---------------------------------------------------------------|
A-------------------------------------------------------------------|
E-------------------------------------------------------------------|

e--------------------------------------------------|
B--------13-15b16.5r15--13-------12----------------|
G-----14-------------------14-12----------12-------|
D--14-------------------------------12-12----14-15-|
A--------------------------------------------------|
E--------------------------------------------------|

e-------------------20--|
B-----------------------|
G-----------------------|
D-----------------------|
A-15-14s15s14s12-12-----|
E-----------------------|

e----------------------------------------------------------------|
B--------13-15b16.5r15-13-------12-13b14-14-14r13-12-12b13r12-10-|
G-----14------------------14-12----------------------------------|
D--14------------------------------------------------------------|
A----------------------------------------------------------------|
E----------------------------------------------------------------|

e------------15-----|
B-15b16.5r15----15--|
G-------------------|
D-------------------|
A-------------------|
E-------------------|

e-------------------------------------------------------------------|
B--------13-15b16.5r15--13-------13-12-----12-13-----15b16.5r15-13--|
G-----14-------------------14-12--------12-------14-----------------|
D--14---------------------------------------------------------------|
A-------------------------------------------------------------------|
E-------------------------------------------------------------------|

e------------------------------------------------------------15-----|
B--------13-15b16.5r15--13-------13-12-----12-13--15b16.5r15----13--|
G-----14-------------------14-12--------12--------------------------|
D--14---------------------------------------------------------------|
A-------------------------------------------------------------------|
E-------------------------------------------------------------------|

e--------------------------------------------------|
B--------13-15b16.5r15--13-------12----------------|
G-----14-------------------14-12----------12-------|
D--14-------------------------------12-12----14-15-|
A--------------------------------------------------|
E--------------------------------------------------|

e-------------------------|
B-------------------------|
G-------------------------|
D--------------------2----|
A-15-14s15s14s12-12--0----|
E-------------------------|

e------------------------------------------------------------------------|
B--------13-15b16.5r15--13-----------------------------------------------|
G-----14-------------------14-12-14-12-let ring, then bend slowly to 14--|
D--14--------------------------------------------------------------------|
A------------------------------------------------------------------------|
E------------------------------------------------------------------------|

2:32-2:47
----------

e--------------------------------------------------------------------------|
B--------------------------------------------------------------------------|
G--------------------------------------------------------------------------|
D--------------------------------------------------------------------------|
A--------------------------------------------------------------------------|
E--5-5-5-6--5-5--5-6--5-3--5-5-5-6--5-5--5-6-9-5s6--5-5-5-6--5-5--5-5--5-3-|

e------------------------|
B------------------------|
G------------------------|
D------------------------|
A------------------------|
E-5-5-5-6---------5s(0)--|

e--------------------------------------------------------------------------|
B--------------------------------------------------------------------------|
G--------------------------------------------------------------------------|
D--------------------------------------------------------------------------|
A--------------------------------------------------------------------------|
E--5-5-5-6--5-5--5-6--5-3--5-5-5-6--5-5--5-6-9-5s6--5-5-5-6--5-5--5-5--5-3-|

e------------------------|
B------------------------|
G------------------------|
D------------------------|
A------------------------|
E-5-5-5-6--5-5--5-5h6-5--|

Between the part above and the next part you can hear a:
e--20--|

2:48-3:35 (The screaming lady) (the part above keeps on repeating until some point)
------------------------------------------------------------------

e------------------------------------------------------------|
B--15s18----17-15-17-15-14----14-----------------------------|
G------------------------------------14b15--15----r14--14----|
D------------------------------------------------------------|
A------------------------------------------------------------|
E------------------------------------------------------------|

e-----------------------------------------------------------------|
B----14----14-15----14-15-17-15-14-15-14----14--------------------|
G-14-------------------------------------15----14----14b15---r14--|
D-----------------------------------------------------------------|
A-----------------------------------------------------------------|
E-----------------------------------------------------------------|

e---------------------------------------------17----------------------20--|
B-1s14---14b15-----14-15-17-15-14-15-14----14-----------------------------|
G---------------------------------------15---------14-14b15---r14-14------|
D-------------------------------------------------------------------------|
A-------------------------------------------------------------------------|
E-------------------------------------------------------------------------|

then do the 2:32-2:47 part again 'cause I said so...

3:52-4:22 (the quite piano thingy)
-----------------------------------

e----------[12]-17-15-12---10-12----9---9-10-9-10-12-----------------|
B--------[12]--------------------10------------------10-----20----20-|
G------[12]----------------------------------------------18----18----|
D----[12]------------------------------------------------------------|
A--[12]--------------------------------------------------------------|
E--------------------------------------------------------------------|

e--------------------------------------18-17-12--18-17--15-17-----17-18-21-|
B----17-14----------------------------------------------------14-----------|
G-15---------15-12-14--15--18--19--21--------------------------------------|
D--------------------------------------------------------------------------|
A--------------------------------------------------------------------------|
E--------------------------------------------------------------------------|

e-18-15--18--15-18-15-18-15-18-15--|
B----------------------------------|
G----------------------------------|
D----------------------------------|
A----------------------------------|
E----------------------------------|

4:23-4:55 (The second killer guitar solo)
------------------------------------------

e----------------------------------------------------|
B-------------------------------------------------10-|
G----9---10---9---7--6s7-6----9---10---9---7--6s7----|
D--7---7----7---7-----------7---7----7---7-----------|
A----------------------------------------------------|
E----------------------------------------------------|

e--------------------------------------------------|
B--------------------------------------------------|
G---9---10---9---7--6s7-6----9---10---9---7--6s7-6-|
D-7---7----7---7-----------7---7----7---7----7s8-7-|
A--------------------------------------------------|
E--------------------------------------------------|

e-----------------------------------------------------|
B------------------------------------------------10-8-|
G---9---10---9---7--6s7-6----9---10---9---7--6s7------|
D-7---7----7---7-----------7---7----7---7-------------|
A-----------------------------------------------------|
E-----------------------------------------------------|

e----------------------------------------------|
B----------------------------------------------|
G-10s9-9s7-7-6h7-6----9---10---9---7--------12-|
D-------------------7---7----7---7----7s8s7----|
A----------------------------------------------|
E----------------------------------------------|

e-------------------------------------------------------17-|
B----18-17-15--14s15-14-----17----18----17----15--14h15----|
G-14---------------------14----14----14----14--------------|
D----------------------------------------------------------|
A----------------------------------------------------------|
E----------------------------------------------------------|

e----------------------------------------------------------------------|
B----17----18----17----15--14h15-14-----17----18----17----15--14-15-14-|
G-14----14----14----14---------------14----14----14----14-----14-15-14-|
D----------------------------------------------------------------------|
A----------------------------------------------------------------------|
E----------------------------------------------------------------------|

e-------------------------------------------------------------------17-15-|
B----17----18----17----15--14h15-14-----17----18----17----15--14s15-------|
G-14----14----14----14---------------14----14----14----14-----------------|
D-------------------------------------------------------------------------|
A-------------------------------------------------------------------------|
E-------------------------------------------------------------------------|

e----------------------------------------------------------------|
B-18s17-17s15-15--14s15-14-----17----18----17----15--------------|
G---------------------------14----14----14----14-----14s15s14----|
D-------------------------------------------------------------7--|
A----------------------------------------------------------------|
E----------------------------------------------------------------|

4:56-5:03
-----------

e-------------------------------------------------|
B-------------------------------------------------|
G-------------------------------------------------|
D-------------------------------------------------|
A-------------------------------------------------|
E--5--5-5--5--5-5--5-6--5-5--5-5-5h6-5--6p5-5-5-6-|

e-------------------------------------------------|
B-------------------------------------------------|
G-------------------------------------------------|
D-x-----------------------------------------------|
A--x----------------------------------------------|
E---5--5-5--5--5-5--5-6--5-5--5-5--5-5--5-5--5-5--|

5:04-5:20
---------

e------------------------------------------------|
B------------------------------------------------|
G--------17-------17-------16-------16-------16--| repeat twice
D--15-14----15-14----15-14----15-14----15-14-----|
A------------------------------------------------|
E------------------------------------------------|
then
e------------------------------------------------|
B------------------------------------------------|
G--16-17-14-16-17-14-16----16-17----16-17----16--|   repeat twice
D-----------------------17-------17-------17-----|
A------------------------------------------------|
E------------------------------------------------|

other sounds are playing in the background as this continues so here they are:

e------------------------------------------------|
B------------------------------------------------|
G--------17-------17-------16-------16-------16--|
D--15-14----15-14----15-14----15-14----15-14-----|
A------------------------------------------------|
E------------------------------------------------|
                                                 |
e------------------------------------------------|
B------------------------------------------------|
G-----------------------------------16----16-----|
D--------------------------------17----17----17--|
A------------------------------------------------|
E------------------------------------------------|

e------------------------------------------------|
B------------------------------------------------|
G--------17-------17-------16-------16-------16--|
D--15-14----15-14----15-14----15-14----15-14-----|
A------------------------------------------------|
E------------------------------------------------|
                                                 |
e------------------------------------------------|
B------------------------------------------------|
G-----------------------------------16----16-16--|
D--------------------------------------17--------|
A------------------------------------------------|
E------------------------------------------------|

and these little fills..in the background:

e------------------------|
B------------------------|
G--14-14-14-17-17s14-17--|
D------------------------|
A------------------------|
E------------------------|

e--------------------17--|
B------------------------|
G--14-14-14-14-17-17-----|
D------------------------|
A------------------------|
E------------------------|

Then the "aha" voices from 0:32-0:56 come while 5:04-5:20 is still playing in the back
with all the fills and all the little background noises.

Later on there's a point where the "aha" voices are played with nothing in the
except some weird chords are played along...
the chords are: A C A (though I am not 100% sure about it).

The last part (the bass thingo)
-------------------------------

e-------------------------------|
B-------------------------------|
G-------------------------------|   repeat it until you feel satisfaction
D--12h13------------------------|
A--------12--12-12h15--12(s10)--|
E-------------------------------|

We'll that is it. I hope someone finds is useful.
Questions? comments? anthrax?





Comments


Popular Infected Mushroom tabs & chords
Saeed Chords
Smashing The Opponent Chords
Becoming Insane Tabs
Deeply Disturbed 1 Tabs
Deeply Disturbed 3 Tabs
Deeply Disturbed 4 Tabs
Heavyweight 2 Tabs
Poquito Mas Tabs
Stretched Tabs
Suliman Tabs


Song lyrics



↑ Back to top | Tablatures and chords are parodies/interpretations of the original songs. You may use it for private study, scholarship, research or language learning purposes only
© 2014 AZChords.com Contact us | Privacy policy | DMCA | Add/correct tabs | Request tabs | Top 50 tabs