» » »

Deeply Disturbed Tabs (ver.4)

Artists:  A B C D E F G H I J K L M N O P Q R S T U V W X Y Z # 

Deeply Disturbed Tabs (ver.4)

Infected Mushroom
Rating:
0/5 (0 votes)

Tabs too difficult? Try these video lessons and learn fast.
                Questions ?


p=pull
/=slide

e--------------------------------------------------------------------------|
B--------------------------------------------------------------------------|
G--------------------------------------------------------------------------|
D----4-4--7------------4---------------------------------------------------|
A-------------5--5--5--------7---------------------------------------------|
E---------------------------------3--3--3p---------------------------------|

e----------------------------------------------------------------------------|
B----------------------------------------------------------------------------|
G----------------------------------------------------------------------------|
D----4-4--7------------4-----------------------------------------------------|
A-------------5--5--5--------7-----------------------------------------------|
E---------------------------------3--3--3/6----------------------------------|
            
Tabs too difficult? Try these video lessons and learn fast.




comments powered by Disqus
↑ Back to top | Tablatures and chords are parodies/interpretations of the original songs. You may use it for private study, scholarship, research or language learning purposes only