» » »

Infected Mushroom, Becoming Insane Tabs (ver.4)

Artists:  A B C D E F G H I J K L M N O P Q R S T U V W X Y Z # 

Becoming Insane Tabs (ver.4)

Infected Mushroom Tabs
 Rating:
4/5 (4 votes)
Becoming Insane lessons Tabs too difficult? Try these video lessons and learn fast
1
                e|--5---555--6-6--3-3--6-5--5-555--6-6--10--9--6--9---|
B|----------------------------------------------------|
G|----------------------------------------------------|
D|--7---777--8-8--5-5--8-7--7-777--8-8--12--11-8--11--|
A|----------------------------------------------------|       
E|----------------------------------------------------|

e|12-12-13-13-10-10-13-12-5-555-6-6-3-3-6-5-3-5-----|
B|--------------------------------------------------|          
G|--------------------------------------------------|          
D|14-14-15-15-12-12-15-14-7-777-8-8-5-5-8-7-5-7-----|
A|--------------------------------------------------|
E|--------------------------------------------------|

e|--5---555--6-6--3-3--6-5--5-555--6-6--10--9--6--9---|
B|----------------------------------------------------|
G|----------------------------------------------------|
D|--7---777--8-8--5-5--8-7--7-777--8-8--12--11-8--11--|
A|----------------------------------------------------|       
E|----------------------------------------------------|

e|12-12-13-13-10-10-13-12-5-555-6-6-|         
B|----------------------------------|          
G|----------------------------------|          
D|14-14-15-15-12-12-15-14-7-777-8-8-|
A|----------------------------------|
E|----------------------------------|


e|--5----5--5----6----6----3----3---6--5--|
B|--5----5--5----6----6----3----3---6--5--|
G|--6----6--6----7----7----3----3---7--6--| x4
D|--7----7--7----8----8----5----5---8--7--|
A|--7----7--7----8----8----5----5---8--7--|
E|--5----5--5----6----6----3----3---6--5--|


e|---------------------------------------------------------------------|
B|---------------------------------------------------------------------|
G|------5--5------5--5------------5--5------5--5------4--4------4--4---|
D|-----------7---------7---------------7---------7---------5---------5-|
A|----------------------------------------0---------0---------0--------|
E|--5-5---------5--------(4)5(4)5--------------------------------------|

e|--------------------------------|
B|--------------------------------|
G|-----2-----4-----5------7/8\7\2-|
D|---4---4-----4-----4------------|
A|---------------------5----------|
E|-5-------5-----5----------------|

e|-----------------------------------------------------------------------|
B|--------------------------3h4s3----------------------------------------|
G|------5--5------5--5----2------3--5--5------5--5------4--4------4--4---|
D|-----------7---------7-----------------7---------7---------5---------5-|
A|-----------------------------------------------------------------------|
E|--5-5---------5---------------------------5---------5---------5--------|


e|--------------------------------|
B|--------------------------------|
G|-----2-----4-----5------7/8\7\2-|
D|---4---4-----4-----4------------|
A|---------------------5----------|
E|-5-------5-----5----------------|


e|--5---555--6-6--3-3--6-5--5-555--6-6--10--9--6--9---|
B|----------------------------------------------------|
G|----------------------------------------------------|
D|--7---777--8-8--5-5--8-7--7-777--8-8--12--11-8--11--|
A|----------------------------------------------------|    _   
E|----------------------------------------------------|     |
                                                            |-x2
e|12-12-13-13-10-10-13-12-5-555-6-6-3-3-6-5-3-5-----|      _|
B|--------------------------------------------------|          
G|--------------------------------------------------|          
D|14-14-15-15-12-12-15-14-7-777-8-8-5-5-8-7-5-7-----|
A|--------------------------------------------------|
E|--------------------------------------------------|

x;''
            
Submit corrections

comments powered by Disqus
↑ Back to top | Infected Mushroom Tabs for Becoming Insane. Lyrics for acoustic guitar and electric guitar. 1 Tablatures and chords are parodies/interpretations of the original songs. You may use it for private study, scholarship, research or language learning purposes only