» » »

In Fear And Faith, Pirates... The Sequel Tabs (ver.1)

Artists:  A B C D E F G H I J K L M N O P Q R S T U V W X Y Z # 

Pirates... The Sequel Tabs (ver.1)

In Fear And Faith Tabs
Rating:
0/5 (0 votes)
Pirates... The Sequel lessons Tabs too difficult? Try these video lessons and learn fast
                
Hey, this is my first tab, just bear with me.  It probably not all right, I did it in 
two hours, so I’m open to any and all suggestions or criticisms.  Mail me or leave a 
here and I’ll look into fixing it.

Intro (Guitar One)
e|------------------------------------13h12h13-------------------|
B|------------8-------8-10----8-10-11----------14p12-12-12-------|
G|10--7--9-10---7--10------7-------------------------------------|
D|---------------------------------------------------------------| x4
A|---------------------------------------------------------------|
D|---------------------------------------------------------------|

(Guitar Two)
e|---------------------------------------------------------------|
B|---------------------------------------------------------------|
G|---------------------------------------------------------------|
D|0-0-0000-0-0-0-0-10-10-10--8-8-8888-8-8-8-8--------------------| x2
A|0-0-0000-0-0-0-0-10-10-10--8-8-8888-8-8-8-8--------------------|
D|0-0-0000-0-0-0-0-10-10-10--8-8-8888-8-8-8-8--------------------|
  . . .... . . . .  .  .  .  . . .... . . . .

(Guitar Three?  Comes in third time of guitar one)
e|----------------8----------------|
B|--------10-----------------------|
G|10-9-10----10-9---9--------------|
D|---------------------------------| x8
A|---------------------------------|
D|---------------------------------|

Verse (Guitar One)
e|---------------------------------------------------------------|
B|10--8--13----------10--8--13-----------------------------------|
G|--10-10----10--------10-10-------------------------------------|
D|----------------------------12~--------------------------------|
A|---------------------------------------------------------------|
D|---------------------------------------------------------------|

(Guitar Two was too hard to hear, I’ll work on it)

Bridge (Guitar One)
e|-----------------------------------------------------------------|
B|------10-------13-10---------------------------------------------|
G|10-12----10--12-----12--10-9--10---------------------------------|
D|----------------------------10-----------------------------------|
A|-----------------------------------------------------------------|
D|-----------------------------------------------------------------|

Chorus (Guitars One and Two)
e|---------------------------------------------------------------|
B|---------------------------------------------------------------|
G|7777777777777777--10101010101010101010101010101010-------------|
D|xxxxxxxxxxxxxxxx--x-x-x-x-x-x-x-x-x-x-x-x-x-x-x-x--------------|
A|5555555555555555--8-8-8-8-8-8-8-8-8-8-8-8-8-8-8-8--------------|
D|---------------------------------------------------------------|

e|---------------------------------------------------------------|
B|---------------------------------------------------------------|
G|---------------------------------------------------------------|
D|00000-00000-0-0-0-0-0—----1010101010-1010101010-10-10-10-10-10-|
A|00000-00000-0-0-0-0-0-----1010101010-1010101010-10-10-10-10-10-|
D|00000-00000-0-0-0-0-0-----1010101010-1010101010-10-10-10-10-10-|
  ..... ..... . . . . .      . . . . .  . . . . .  .  .  .  .  .

e|---------------------------------------------------------------|
B|---------------------------------------------------------------|
G|7777777777777777--10101010101010101010101010101010-------------|
D|xxxxxxxxxxxxxxxx--x-x-x-x-x-x-x-x-x-x-x-x-x-x-x-x--------------|
A|5555555555555555--8-8-8-8-8-8-8-8-8-8-8-8-8-8-8-8--------------|
D|---------------------------------------------------------------|

e|---------------------------------------------------------------|
B|---------------------------------------------------------------|
G|---------------------------------------------------------------|
D|00000-00000-0-0-0-0-0—----1010101010-1010101010-10-10-10-10-10-|
A|00000-00000-0-0-0-0-0-----1010101010-1010101010-10-10-10-10-10-|
D|00000-00000-0-0-0-0-0-----1010101010-1010101010-10-10-10-10-10-|
  ..... ..... . . . . .      . . . . .  . . . . .  .  .  .  .  .

Bridge 2 (Guitar One)
e|---------------------------------------------------------------|
B|10-9------------------10-9-------------------------------------|
G|----9--8-8-9p8------------9--8-8-9p8---------------------------|
D|--------------9/11------------------9/11-----------------------| x4
A|---------------------------------------------------------------|
D|---------------------------------------------------------------|

(Guitar Two was, again, too hard to hear, I’ll work on it)

Pirates life for me...  Pirates life for me...
e|---------------------------------------------------------------|
B|----------------------------------------------8----------------|
G|----------------------------------------------11---------------|
D|00000-00000-0-0-00000--00000-00000-0-0-00000-------------------|
A|00000-00000-0-0-00000--00000-00000-0-0-00000-------------------|
D|00000-00000-0-0-00000--00000-00000-0-0-00000-------------------|
  ..... ..... . . .....  ..... ..... . . .....

e|---------------------------------------------------------------|
B|---------------------------------------------------------------|
G|---------------------------------------------------------------|
D|00000-00000-0-0-00000--00000-00000-0-0-00000-------------------| x2
A|00000-00000-0-0-00000--00000-00000-0-0-00000-------------------|
D|00000-00000-0-0-00000--00000-00000-0-0-00000-------------------|
  ..... ..... . . .....  ..... ..... . . .....

Chorus (Guitars One and Two)
e|---------------------------------------------------------------|
B|---------------------------------------------------------------|
G|7777777777777777--10101010101010101010101010101010-------------|
D|xxxxxxxxxxxxxxxx--x-x-x-x-x-x-x-x-x-x-x-x-x-x-x-x--------------|
A|5555555555555555--8-8-8-8-8-8-8-8-8-8-8-8-8-8-8-8--------------|
D|---------------------------------------------------------------|

e|---------------------------------------------------------------|
B|---------------------------------------------------------------|
G|---------------------------------------------------------------|
D|00000-00000-0-0-0-0-0—----1010101010-1010101010-10-10-10-10-10-|
A|00000-00000-0-0-0-0-0-----1010101010-1010101010-10-10-10-10-10-|
D|00000-00000-0-0-0-0-0-----1010101010-1010101010-10-10-10-10-10-|
  ..... ..... . . . . .      . . . . .  . . . . .  .  .  .  .  .

Breakdown (Guitar Two)
e|---------------------------------------------------------------------|
B|---------------------------------------------------------------------|
G|----------------------------------------------------(12h14p12-10/12)-|
D|00000-00000-0-0-00000---1010101010-88888-8-8-88888-------------------|
A|00000-00000-0-0-00000---1010101010-88888-8-8-88888-------------------| x6  (Parenthesis 2nd,
D|00000-00000-0-0-00000---1010101010-88888-8-8-88888-------------------|      4th, 6th times)
  ..... ..... . . .....    . . . . . ..... . . .....

 (Guitar One)
e|------------------------------------13h12h13-------------------|
B|------------8-------8-10----8-10-11----------14p12-12-12-------|
G|10--7--9-10---7--10------7-------------------------------------| (Comes in third time of Guitar
D|---------------------------------------------------------------|  Two’s part)
A|---------------------------------------------------------------| x4
D|---------------------------------------------------------------|

Outro (Guitar Two)
e|---------------------------------------------------------------|
B|---------------------------------------------------------------|
G|---------------------------------------------------------------|
D|00000-00000-0-0-00000---1010101010-88888-8-8-88888-------------|  until fadeout
A|00000-00000-0-0-00000---1010101010-88888-8-8-88888-------------|
D|00000-00000-0-0-00000---1010101010-88888-8-8-88888-------------|
  ..... ..... . . .....    . . . . . ..... . . .....

 (Guitar One)
e|----------------8----------------|
B|--------10-----------------------|
G|10-9-10----10-9---9--------------|
D|---------------------------------| until fadeout
A|---------------------------------|
D|---------------------------------|


| /      slide up
| \      slide down
| h      hammer-on
| p      pull-off
| ~      vibrato
| +      harmonic
| x      mute note
| .      palm mute
            
Submit corrections

comments powered by Disqus
↑ Back to top | In Fear And Faith Tabs for Pirates... The Sequel. Lyrics for acoustic guitar and electric guitar. Tablatures and chords are parodies/interpretations of the original songs. You may use it for private study, scholarship, research or language learning purposes only